Song name
# A B C D E F G H I J K L M N O P Q R S T U V W X Y Z

Therion - Abraxas tab

Intro:
|-----------|
|-----------|
|-----------|
|-2-2-2-2-2-|X4
|-2-2-2-2-2-|
|-0-0-0-0-0-|
Gtr I
|-----------|
|-----------|
|-----------|
|-2-2-2-2-2-|X4
|-2-2-2-2-2-|
|-0-0-0-0-0-|
Gtr II
|-5-5-5-5-4-----5-5-5-5-4-7-5-|
|-----------6-5---------------|
|-----------------------------|
|-----------------------------|X2
|-----------------------------|
|-----------------------------|
Gtr I
|---------------------|
|---------------------|
|---------------------|
|-2-2-2-2-2-2-2-2-2-2-|X8
|-2-2-2-2-2-2-2-2-2-2-|
|-0-0-0-0-1-0-0-1-1-0-|
Gtr II
|-5-5-5-5-4-----5-5-5-5-4-7-5-|
|-----------7-6---------------|
|-----------------------------|
|-----------------------------|X4
|-----------------------------|
|-----------------------------|
Gtr III
|--17-17-16-17-17-16-17-17----|
|--------------------------17-|
|-----------------------------|
|-----------------------------|
|-----------------------------|
|-----------------------------|
Verse
 _______________________________________________X2__
Gtr I&II
|-------|  |-------|  |-------|  |-------|  |-------|
|-------|  |-------|  |-------|  |-------|  |-------|
|-2-2-2-|  |-5-5-5-|  |-------|  |-------|  |-2-2-2-|
|-2-2-2-|X8|-5-5-5-|X8|-3-3-3-|X4|-2-2-2-|X4|-2-2-2-|X8
|-0-0-0-|  |-3-3-3-|  |-3-3-3-|  |-2-2-2-|  |-0-0-0-|
|-------|  |-------|  |-1-1-1-|  |-0-0-0-|  |-------|
Bridge
 _____________________________X2_
Gtr I&II
|--------------------------------|
|--------------------------------|
|--------------------------------|
|-5/7-7-7-7-5/7-7-7-10-5-7-7-7-7-|
|-5/7-7-7-7-5/7-7-7-10-5-7-7-7-7-|
|-3/5-5-5-5-3/5-5-5--8-3-5-5-5-5-|
Gtr I & II
|--------------------------------|
|--------------------------------|
|--------------------------------|
|-5/7-7-7-7-5/7-7-7-10-3-5-5-5-5-|
|-5/7-7-7-7-5/7-7-7-10-3-5-5-5-5-|
|-3/5-5-5-5-3/5-5-5--8-1-3-3-3-3-|
Gtr I&II
|---------|  |---------|  |---------|  |---------|
|---------|  |---------|  |---------|  |---------|
|---------|  |---------|  |---------|  |-7-7-7-7-|
|-3-3-3-3-|X2|-2-2-2-2-|X2|-7-7-7-7-|X2|-7-7-7-7-|
|-3-3-3-3-|  |-2-2-2-2-|  |-7-7-7-7-|  |-5-5-5-5-|
|-1-1-1-1-|  |-0-0-0-0-|  |-5-5-5-5-|  |---------|
 .....................P.M........................
|---------|  |---------|  |---------|
|---------|  |---------|  |---------|
|-5-5-5-5-|  |---------|  |---------|
|-5-5-5-5-|X2|-2-2-2-2-|X2|-7-7-7-7-|X2
|-3-3-3-3-|  |-2-2-2-2-|  |-7-7-7-7-|
|---------|  |-0-0-0-0-|  |-5-5-5-5-|
................P.M.................
Verse
 ________________________________________________X2_
Gtr I & II
|-------|  |-------|  |-------|  |-------|  |-------|
|-------|  |-------|  |-------|  |-------|  |-------|
|-2-2-2-|  |-5-5-5-|  |-------|  |-------|  |-2-2-2-|
|-2-2-2-|X8|-5-5-5-|X8|-3-3-3-|X4|-2-2-2-|X4|-2-2-2-|X8
|-0-0-0-|  |-3-3-3-|  |-3-3-3-|  |-2-2-2-|  |-0-0-0-|
|-------|  |-------|  |-1-1-1-|  |-0-0-0-|  |-------|
Bridge
 _____________________________X2_
Gtr I & II
|--------------------------------|
|--------------------------------|
|--------------------------------|
|-5/7-7-7-7-5/7-7-7-10-5-7-7-7-7-|
|-5/7-7-7-7-5/7-7-7-10-5-7-7-7-7-|
|-3/5-5-5-5-3/5-5-5--8-3-5-5-5-5-|
Gtr I & II
|--------------------------------|
|--------------------------------|
|--------------------------------|
|-5/7-7-7-7-5/7-7-7-10-3-5-5-5-5-|
|-5/7-7-7-7-5/7-7-7-10-3-5-5-5-5-|
|-3/5-5-5-5-3/5-5-5--8-1-3-3-3-3-|
Gtr I
|---------|  |---------|  |--------|
|---------|  |---------|  |--------|
|---------|  |---------|  |--------|
|-3-3-3-3-|X2|-2-2-2-2-|X2|-7-9-10-|
|-3-3-3-3-|  |-2-2-2-2-|  |-7-9-10-|
|-1-1-1-1-|  |-0-0-0-0-|  |-5-7--8-|
...............P.M.................
|---------|  |---------|  |---------|
|---------|  |---------|  |---------|
|---------|  |---------|  |---------|
|-3-3-3-3-|X2|-2-2-2-2-|X2|-7-7-7-7-|X2
|-3-3-3-3-|  |-2-2-2-2-|  |-7-7-7-7-|
|-1-1-1-1-|  |-0-0-0-0-|  |-5-5-5-5-|
..............P.M...................
Gtr II
|-----------------------------------------|
|------9-10/13-10/12-10/12-13-12/10-12-13-|
|-9/10------------------------------------|
|-----------------------------------------|
|-----------------------------------------|
|-----------------------------------------|

|-10-------------------------|
|----13-12-13-12-------10-11-|
|----------------11-10-------|
|----------------------------|
|----------------------------|
|----------------------------|
Gtr I
|-----------|
|-----------|
|-----------|
|-2-2-2-2-2-|X4
|-2-2-2-2-2-|
|-0-0-0-0-0-|
Gtr II
|-5-5-5-5-4-----5-5-5-5-4-7-5-|
|-----------6-5---------------|
|-----------------------------|
|-----------------------------|X2
|-----------------------------|
|-----------------------------|
Gtr I
|---------------------|
|---------------------|
|---------------------|
|-2-2-2-2-2-2-2-2-2-2-|X8
|-2-2-2-2-2-2-2-2-2-2-|
|-0-0-0-0-1-0-0-1-0-0-|
Gtr II
|-5-5-5-5-4-----5-5-5-5-4-7-5-|
|-----------7-6---------------|
|-----------------------------|
|-----------------------------|X4
|-----------------------------|
|-----------------------------|
Gtr III
|--17-17-16-17-17-16-17-17----|
|--------------------------17-|
|-----------------------------|
|-----------------------------|
|-----------------------------|
|-----------------------------|
Gtr I&II (Fast)
|---------------|
|---------------|
|---------------|
|-------7-------|
|-7--6--5--5--7-|
|-5--4-----3--5-|

Gtr I
 ____________________________________________________up to end_
|-------|  |-------|  |-------|  |-------|  |-------|  |-------|
|-------|  |-------|  |-------|  |-------|  |-------|  |-------|
|-------|  |-------|  |-7-7-7-|  |-------|  |-------|  |-------|
|-7-7-7-|X4|-6-6-6-|X4|-7-7-7-|X2|-5-5-5-|X2|-7-7-7-|X2|-7/5-5-|
|-7-7-7-|  |-6-6-6-|  |-5-5-5-|  |-5-5-5-|  |-7-7-7-|  |-7/5-5-|
|-5-5-5-|  |-4-4-4-|  |-------|  |-3-3-3-|  |-5-5-5-|  |-5/3-3-|
Gtr II
 ___________________________X2_
|------------------------------|
|------------------------------|
|-9-7-----------------7-9-10-9-|
|-----10-9-7---7-9-10----------|
|------------7-----------------|
|------------------------------|

|------------------------------|
|------------------------------|
|-10-9-7-----------------------|
|--------10-9-9-10-9-7----7----|
|----------------------10---10-|
|------------------------------|


X: /-///ALEJANDRO\\\-\
Tap to rate this tab
# A B C D E F G H I J K L M N O P Q R S T U V W X Y Z