Song name
# A B C D E F G H I J K L M N O P Q R S T U V W X Y Z

Therion - Up To Netzach tab

Help us improve GuitareTab! Take a short survey!
Therion - "Up To Netzach / Floating Back"
by gato138 lordaborto@mixmail.com


Intro: (acoustic)

   Am                G                 F                 E
e|-----------------|-----------------|-----------------|-----------------|
h|-------0^1-----1-|-------1-----0---|-------1---------|-----------------|
g|-----2-------2---|-----0-----0---0-|-----2---2---2---|-------0---------|
D|---2-------2-----|---0-----0-------|---3-------3---3-|-----1-----2---0-|
A|-0---------------|-----------------|-----------------|---2-----3---2---|
E|-----------------|-3---------------|-1---------------|-0---------------|

   Am                G                 F                 E
e|-----------------|-----------------|-----------------|---------0-------|
h|-------0^1-----1-|-------1-----0---|-------1---------|-------0---------|
g|-----2-------2---|-----0-----0---0-|-----2---2---2---|-----1-----------|
D|---2-------2-----|---0-----0-------|---3-------3---3-|---2-------------|
A|-0---------------|-----------------|-----------------|-----------------|
E|-----------------|-3---------------|-1---------------|-0---------------|

The rest of the song goes like this all the way through:
(more heavy of course with the choir n'stuff)

Am  G  F  E

I know he does something with his guitar when he plays the E there,
but I haven't been able to figure it out...So if YOU could, please
mail me comments/corrections etc.

==
Related for Up To Netzach tab