Song name
# A B C D E F G H I J K L M N O P Q R S T U V W X Y Z

Therion - Three Treasures tab

-------------------------------------------------------------------------------
Therion - Three Treasures (Solo)
-------------------------------------------------------------------------------
Tabbed by: Markus Rafferty
Email: stairsleadingup@gmail.com

Tuning: Eb Ab Db Gb Bb eb


  [4:39]                                                   [4:42]
|----------------------------------------------------------------------------|
|----------------------------------------------------------------------------|
|----------------------------------------------------------14/16-\14--12--14-|
|---------------------------------------------13--14-16-17-------------------|
|------------------------------------12-14-15--------------------------------|
|-12-/19\--12-11-12-14--15-12-14-15------------------------------------------|

                                     [4:45]
                                ~
|----------------------------------------------------------------------------|
|----------------------------------------------------------------------------|
|-14b16---r14b16--14-b16-r14--12-----14--16--16b19---16b19r16--14--12--12/14-|
|----------------------------------------------------------------------------|
|----------------------------------------------------------------------------|
|----------------------------------------------------------------------------|

                                         [4:50]
       ~                           ~                                  ~~
|----------------------------------------------------------------------------|
|----------------------------------------------------------------------------|
|-12b14---14-r12--14-r12--14-r12--9------14b16--r14b16--14-b16-r14--12-------|
|----------------------------------------------------------------------------|
|----------------------------------------------------------------------------|
|----------------------------------------------------------------------------|

                                [4:54]                          [4:56]
                 ~                                        ~~~
|-------------------------------------------------12-19----------------------|
|----------------------------------------------12-------17-------------------|
|-h14-p12h14p12\8---8--8/9-/11--------------12------------------14b16r14--12-|
|----------------------------------------14----------------------------------|
|-------------------------------------14-------------------------------------|
|-------------------------------12-15----------------------------------------|
							 *

                                 [4:59]
        ~~                 ~~                                             ~
|----------------------------------------------------------------------------|
|----------------------------------------------------------------------------|
|-14--16------14b16--14--12------14--16--16b19--16b19----19r16--14-\12-/14---|
|----------------------------------------------------------------------------|
|----------------------------------------------------------------------------|
|----------------------------------------------------------------------------|

  [5:01]                                                    [5:03]
                                                      ~~
|-19-17-15-------------------------------------------------------------------|
|----------17-15-12----------------------------------------------------------|
|-------------------16-14-12--------------------------------x--14b16--14-b16-|
|----------------------------14-12-9-----------------------------------------|
|------------------------------------14-12-10--------------------------------|
|---------------------------------------------12p10/12-----------------------|

                              [5:06]                         [5:08]
                 ~                        ~       ~~
|----------------------------------------------------------------------------|
|----------------------------------------------------------------------------|
|-14b16r14--x--12--14--12h14-\8--8----8--9--\5---4------4/9--9---------------|
|---------------------------------------------------------------9------------|
|------------------------------------------------------------------10-p9-----|
|-------------------------------------------------------------------------10-|
									   *
		  			                      
     ~~~~~~
|----------------------------------------------------------------------------|
|----------------------------------------------------------------------------|
|----------------------------------------------------------------------------|
|----------------------------------------------------------------------------|
|----------------------------------------------------------------------------|
|-/12------------------------------------------------------------------------|
Tap to rate this tab
# A B C D E F G H I J K L M N O P Q R S T U V W X Y Z