Song name
# A B C D E F G H I J K L M N O P Q R S T U V W X Y Z

Therion - Cults Of The Shadow tab

#----------------------------------PLEASE NOTE---------------------------------#
#This file is the author's own work and represents their interpretation of the #
#song. You may only use this file for private study, scholarship, or research. #
#------------------------------------------------------------------------------#

CULTS OF THE SHADOW
As recorded by Therion
(From the 1996 Album THELI)

Transcribed by rumitema@freemail.hu
	

Words by T. Karlsson/C. Johnsson Music by C. Johnsson

Gtr I (Db Gb B E Ab Db) - 'Guitar'
Gtr II (Db Gb B E Ab Db) - 'Acoustic'
Gtr III (Db Gb B E Ab Db) - 'Clarinet'
Gtr IV (Db Gb B E Ab Db) - 'Piano'
Gtr V (Db Gb B E Ab Db) - 'Strings'

 Intro
  Q=144
                  B5                                             A5
 4/4
  Gtr I
  Wx11            Q  Q  E E E E   Q  Q  E E E E  4x Q  E E E E E E
|-------------||----------------|----------------||----------------|
|-------------||o---------------|---------------o||----------------|
|-------------||----------------|----------------||----------------|
|-------------||--4--4--4-4-4-4-|-4--4--4-4-4-4--||-4--4-4-4-2---2-|
|-------------||o-2--2--2-2-2-2-|-2--2--2-2-2-2-o||-2--2-2-2-0---0-|
|-------------||----------------|----------------||----------------|


 Verse
  B5                   A5      B5                   G5
  E E Q  H      H    E E E E   E E Q  H      H    E E E E
|-------------|--------------|-------------|--------------|
|-------------|--------------|-------------|--------------|
|-------------|--------------|-------------|--------------|
|-4-----------|--------2---2-|-4-----------|--------------|
|-2-----------|--------0---0-|-2-----------|--------5---5-|
|-------------|--------------|-------------|--------3---3-|


  A5                           B5                   A5
  E E Q  H      H    E E E E   E E Q  H      H    E E E E
|-------------|--------------|-------------|--------------|
|-------------|--------------|-------------|--------------|
|-------------|--------------|-------------|--------------|
|-2-----------|--------2---2-|-4-----------|--------2---2-|
|-0-----------|--------0---0-|-2-----------|--------0---0-|
|-------------|--------------|-------------|--------------|


  B                               A5
  Gtr II
  E E E E E E E E    E  E E E  E  E E E
|---------7-------|------------7--------|
|-----7-----7---7-|-------7-------7---7-|
|---7---7-----7---|-----7---7-------7---|
|-9---------------|--9------------------|
|-----------------|---------------------|
|-----------------|---------------------|
|
| Gtr I
| W                 +H        +E  E E E
|-----------------|---------------------|
|-----------------|---------------------|
|-----------------|---------------------|
|-4---------------|-(4)-------(4)-2---2-|
|-2---------------|-(2)-------(2)-0---0-|
|-----------------|---------------------|


  B5                              G5
  E E E E E E E E    E  E E E  E  E E E
|---------7-------|------------7--------|
|-----7-----7---7-|-------7-------7---7-|
|---7---7-----7---|-----7---7-------7---|
|-9---------------|--9------------------|
|-----------------|---------------------|
|-----------------|---------------------|
|
| W                 +H        +E  E E E
|-----------------|---------------------|
|-----------------|---------------------|
|-----------------|---------------------|
|-4---------------|-(4)-------(4)-------|
|-2---------------|-(2)-------(2)-5---5-|
|-----------------|---------------3---3-|


  A5                              A5      B5
                                                                        Gtr I
  E E E E E E E E    E  E E E  E  E E E   E E E E E E E E   H       +E  E E E
|---------5-------|------------5--------|---------7-------|-------------------|
|-----5-----5---5-|-------5-------5---5-|-----7-----7---7-|-------------------|
|---6---6-----6---|-----6---6-------6---|---7---7-----7---|-------------------|
|-7---------------|--7------------------|-9---------------|-9-------(9)-4-1---|
|-----------------|---------------------|-----------------|-----------------3-|
|-----------------|---------------------|-----------------|-------------------|
|
| W                 +H        +E  E E E   W                 E E E E  E  E E E
|-----------------|---------------------|-----------------|-------------------|
|-----------------|---------------------|-----------------|-------------------|
|-----------------|---------------------|-----------------|-------------------|
|-2---------------|-(2)-------(2)-2---2-|-4---------------|-4-----4-----4-1---|
|-0---------------|-(0)-------(0)-0---0-|-2---------------|---2-2-2--2------3-|
|-----------------|---------------------|-----------------|-------------------|


   Chorus
    N.C.
    Gtr I
       PM------|            PM------|
    Q  S S S S E E E E   Q  S S S S E E E E
||---------------------|--------------------|
||o--------------------|--------------------|
||---------------------|--------------------|
||---------------4-1---|--------------4-1---|
||o-2--2-2-2-2-2-----3-|-2--2-2-2-2-2-----3-|
||---------------------|--------------------|


                      1.
     PM------|            PM------|
  Q  S S S S E E E E   Q  S S S S E E E E
|--------------------|---------------------||
|--------------------|--------------------o||
|--------------------|---------------------||
|--------------------|--------------4-1----||
|-0--0-0-0-0-0-0-2-3-|-2--2-2-2-2-2-----3-o||
|--------------------|---------------------||


  2.
     PM------|
  Q  S S S S E E E E     +H     +E  E E E   +H     +E  E E E
|--------------------||-------------------|-------------------|
|--------------------||o------------------|-------------------|
|--------------1-----||-------------1-----|------------1------|
|----------------3-2-||--(2)----(2)---3-2-|-(2)----(2)---3-0--|
|-2--2-2-2-2-2-------||o------------------|-------------------|
|--------------------||-------------------|-------------------|


                    1.                   2.
                                                     A5
  +H     +E  E E E   +H     +E  E E E     +H     +E  E E E
|------------------|-------------------||------------------|
|------------------|------------------o||------------------|
|------------------|------------1------||------------------|
|-(0)----(0)-0-3-2-|-(2)----(2)---3-2--||-(2)----(2)-2-2-2-|
|------------------|------------------o||------------0-0-0-|
|------------------|-------------------||------------------|


 Verse
  B5                   A5      B5                   G5
  E E Q  H      H    E E E E   E E Q  H      H    E E E E
|-------------|--------------|-------------|--------------|
|-------------|--------------|-------------|--------------|
|-------------|--------------|-------------|--------------|
|-4-----------|--------2---2-|-4-----------|--------------|
|-2-----------|--------0---0-|-2-----------|--------5---5-|
|-------------|--------------|-------------|--------3---3-|


  A5                   A5      B5                   A5
  E E Q  H      H    E E E E   E E Q  H      H    E E E E
|-------------|--------------|-------------|--------------|
|-------------|--------------|-------------|--------------|
|-------------|--------------|-------------|--------------|
|-2-----------|--------2---2-|-4-----------|--------2---2-|
|-0-----------|--------0---0-|-2-----------|--------0---0-|
|-------------|--------------|-------------|--------------|


  $
  B5                              A5
  Gtr II
  E E E E E E E E    E  E E E  E  E E E
|---------7-------|------------7--------|
|-----7-----7---7-|-------7-------7---7-|
|---7---7-----7---|-----7---7-------7---|
|-9---------------|--9------------------|
|-----------------|---------------------|
|-----------------|---------------------|
|
| Gtr I
| W                 +H        +E  E E E
|-----------------|---------------------|
|-----------------|---------------------|
|-----------------|---------------------|
|-4---------------|-(4)-------(4)-2---2-|
|-2---------------|-(2)-------(2)-0---0-|
|-----------------|---------------------|


  B5                              G5
  E E E E E E E E    E  E E E  E  E E E
|---------7-------|------------7--------|
|-----7-----7---7-|-------7-------7---7-|
|---7---7-----7---|-----7---7-------7---|
|-9---------------|--9------------------|
|-----------------|---------------------|
|-----------------|---------------------|
|
| W                 +H        +E  E E E
|-----------------|---------------------|
|-----------------|---------------------|
|-----------------|---------------------|
|-4---------------|-(4)-------(4)-------|
|-2---------------|-(2)-------(2)-5---5-|
|-----------------|---------------3---3-|


  A5                              A5
  E E E E E E E E    E  E E E  E  E E E
|---------5-------|------------5--------|
|-----5-----5---5-|-------5-------5---5-|
|---6---6-----6---|-----6---6-------6---|
|-7---------------|--7------------------|
|-----------------|---------------------|
|-----------------|---------------------|
|
| W                 +H        +E  E E E
|-----------------|---------------------|
|-----------------|---------------------|
|-----------------|---------------------|
|-2---------------|-(2)-------(2)-2---2-|
|-0---------------|-(0)-------(0)-0---0-|
|-----------------|---------------------|


  B5                              A5
  E E E E E E E E    E  E E E  E  E E E
|---------7-------|------------7--------|
|-----7-----7---7-|-------7-------7---7-|
|---7---7-----7---|-----7---7-------7---|
|-9---------------|--9------------------|
|-----------------|---------------------|
|-----------------|---------------------|
|
| W                 +H        +E  E E E
|-----------------|---------------------|
|-----------------|---------------------|
|-----------------|---------------------|
|-4---------------|-(4)-------(4)-2---2-|
|-2---------------|-(2)-------(2)-0---0-|
|-----------------|---------------------|


 Interlude
  B5                                         A5
   E  E E  E  E  E E  E    E  E     E  E  E   E  E  E
|-------------7---------|-----------------7-----------|
|-------7--------7----7-|-----------7---------7-----7-|
|-----7----7-------7----|-----7--------7---------7----|
|--9--------------------|--9--------------------------|
|-----------------------|-----------------------------|
|-----------------------|-----------------------------|
|
|  W                      +H             +E   E  E  E
|-----------------------|-----------------------------|
|-----------------------|-----------------------------|
|-----------------------|-----------------------------|
|--4--------------------|-(4)------------(4)--2-----2-|
|--2--------------------|-(2)------------(2)--0-----0-|
|-----------------------|-----------------------------|
|
| Gtr III
|  Q.      E  Q.      E    E.    S  E  E  E   E  E  E
|-----------------------|-------------12-14--12-------|
|-12---------12---------|-12----14-15-----------15----|
|---------14---------14-|--------------------------14-|
|-----------------------|-----------------------------|
|-----------------------|-----------------------------|
|-----------------------|-----------------------------|


  B5                                         G5
   E  E E  E  E  E E  E    E  E     E  E  E   E  E  E
|-------------7---------|-----------------7-------------|
|-------7--------7----7-|-----------7---------7-----7---|
|-----7----7-------7----|-----7--------7---------7------|
|--9--------------------|--9----------------------------|
|-----------------------|-------------------------------|
|-----------------------|-------------------------------|
|
|  W                      +H             +E   E  E  E
|-----------------------|-------------------------------|
|-----------------------|-------------------------------|
|-----------------------|-------------------------------|
|--4--------------------|-(4)------------(4)------------|
|--2--------------------|-(2)------------(2)--5-----5---|
|-----------------------|---------------------3-----3---|
|
|  Q.      E  Q.      E    E.    S  E  E  E   E  E  E
|-----------------------|-------------12-14--12---------|
|-12---------12---------|-12----14-15-----------15-14---|
|---------14---------14-|-------------------------------|
|-----------------------|-------------------------------|
|-----------------------|-------------------------------|
|-----------------------|-------------------------------|


  A5                                    A5
   E E E E  E E E E    E  E E  E     E   E  E  E
|-----------5-------|----------------5-----------|
|------5------5---5-|-------5------------5-----5-|
|----6---6------6---|-----6----6------------6----|
|--7----------------|--7-------------------------|
|-------------------|----------------------------|
|-------------------|----------------------------|
|
|  W                  +H            +E   E  E  E
|-------------------|----------------------------|
|-------------------|----------------------------|
|-------------------|----------------------------|
|--2----------------|-(2)-----------(2)--2-----2-|
|--0----------------|-(0)-----------(0)--0-----0-|
|-------------------|----------------------------|
|
|  H        H          Q.      S  S  E   E  E  E
|-12----------------|---------14-12-----------14-|
|----------15-------|-14------------15--14-12----|
|-------------------|----------------------------|
|-------------------|----------------------------|
|-------------------|----------------------------|
|-------------------|----------------------------|


              To Coda
  B5
                                     Gtr I
   E  E E E E E   E  E   H       +E  E E E
|-----------7----------|-------------------|
|-------7-----7------7-|-------------------|
|-----7---7-------7----|-------------------|
|--9-------------------|-9-------(9)-4-1---|
|----------------------|-----------------3-|
|----------------------|-------------------|
|
|                          PM|    PM
|  W                     E E E E  E  E E E
|----------------------|-------------------|
|----------------------|-------------------|
|----------------------|-------------------|
|--4-------------------|-4-----4-----4-1---|
|--2-------------------|-2-2-2-2--2------3-|
|----------------------|-------------------|
|
|                 >
|  H.            +E  E   W
|----------------------|-------------------|
|-12------------(12)---|-------------------|
|----------------------|-------------------|
|----------------------|-------------------|
|----------------------|-------------------|
|----------------------|-------------------|


   Chorus
    N.C.
    Gtr I
       PM------|            PM------|
    Q  S S S S E E E E   Q  S S S S E E E E
||---------------------|--------------------|
||o--------------------|--------------------|
||---------------------|--------------------|
||---------------4-1---|--------------4-1---|
||o-2--2-2-2-2-2-----3-|-2--2-2-2-2-2-----3-|
||---------------------|--------------------|


                      1.
     PM------|            PM------|
  Q  S S S S E E E E   Q  S S S S E E E E
|--------------------|---------------------||
|--------------------|--------------------o||
|--------------------|---------------------||
|--------------------|--------------4-1----||
|-0--0-0-0-0-0-0-2-3-|-2--2-2-2-2-2-----3-o||
|--------------------|---------------------||


  2.
     PM------|
  Q  S S S S E E E E     +H     +E  E E E   +H     +E  E E E
|--------------------||-------------------|-------------------|
|--------------------||o------------------|-------------------|
|--------------1-----||-------------1-----|------------1------|
|----------------3-2-||--(2)----(2)---3-2-|-(2)----(2)---3-0--|
|-2--2-2-2-2-2-------||o------------------|-------------------|
|--------------------||-------------------|-------------------|


                    1.                   2.
                                                     A5A5A5
  +H     +E  E E E   +H     +E  E E E     +H     +E  E E E
|------------------|-------------------||------------------|
|------------------|------------------o||------------------|
|------------------|------------1------||------------------|
|-(0)----(0)-0-3-2-|-(2)----(2)---3-2--||-(2)----(2)-2-2-2-|
|------------------|------------------o||------------0-0-0-|
|------------------|-------------------||------------------|


   Interlude
    E5                        B5
     W                         W
||--------------------------|-------------------------|
||o-------------------------|-------------------------|
||--------------------------|-------------------------|
||--------------------------|--4----------------------|
||o--2----------------------|--2----------------------|
||---0----------------------|-------------------------|
|
|   Gtr IV
|    E  E  E  E  E  E  E  E    E  E  E  E  E  E  E  E
||-----19-15-19----19-15-19-|-------------------------|
||o-17----------17----------|----19-15-19----19-15-19-|
||--------------------------|-16----------16----------|
||--------------------------|-------------------------|
||o-------------------------|-------------------------|
||--------------------------|-------------------------|


  G5                        B5
   W                         W
|-------------------------|---------------------------||
|-------------------------|--------------------------o||
|-------------------------|---------------------------||
|-------------------------|--4------------------------||
|--5----------------------|--2-----------------------o||
|--3----------------------|---------------------------||
|
|  E  E  E  E  E  E  E  E    E  E  E  E  E  E  E  E
|----22-19-22----22-19-22-|---------------------------||
|-20----------20----------|----19-15-19----19-15-19--o||
|-------------------------|-16----------16------------||
|-------------------------|---------------------------||
|-------------------------|--------------------------o||
|-------------------------|---------------------------||


    E5                          B5
     W                           W
||----------------------------|---------------------------|
||o---------------------------|---------------------------|
||----------------------------|---------------------------|
||----------------------------|--4------------------------|
||o--2------------------------|--2------------------------|
||---0------------------------|---------------------------|
|
|   Gtr IV
|    E  E  E  E   E   E  E  E    E  E  E  E   E   E  E  E
||-----19-15-19------19-15-19-|---------------------------|
||o-17-----------17-----------|----19-15-19------19-15-19-|
||----------------------------|-16-----------16-----------|
||----------------------------|---------------------------|
||o---------------------------|---------------------------|
||----------------------------|---------------------------|
|
|   Gtr III
|    H           +E   E  E  E    H           +E   E  E  E
||--12----------(12)-14-12----|------------------14-12-14-|
||o------------------------15-|-12----------(12)----------|
||----------------------------|---------------------------|
||----------------------------|---------------------------|
||o---------------------------|---------------------------|
||----------------------------|---------------------------|


  G5                          B5
   W                           W
|---------------------------|----------------------------||
|---------------------------|---------------------------o||
|---------------------------|----------------------------||
|---------------------------|--4-------------------------||
|--5------------------------|--2------------------------o||
|--3------------------------|----------------------------||
|
|  E  E  E  E   E   E  E  E    E  E  E   E  E  E  E  E
|----22-19-22------22-19-22-|----------------------------||
|-20-----------20-----------|----19-15--19----19-15-19--o||
|---------------------------|-16-----------16------------||
|---------------------------|----------------------------||
|---------------------------|---------------------------o||
|---------------------------|----------------------------||
|
|  H           +E   E  E  E    E  E  H.
|-15----------(15)-14-12----|-12-------------------------||
|------------------------15-|----15-12------------------o||
|---------------------------|----------------------------||
|---------------------------|----------------------------||
|---------------------------|---------------------------o||
|---------------------------|----------------------------||


       E5                        B5
        PM---------------|        PM---------------|
     E  E  E  E  E  E  E  E    E  E  E  E  E  E  E  E
||--------------------------|-------------------------|
||o-------------------------|-------------------------|
||--------------------------|-------------------------|
||--------------------------|-----4--4--4--4--4--4--4-|
||o-----2--2--2--2--2--2--2-|-----2--2--2--2--2--2--2-|
||------0--0--0--0--0--0--0-|-------------------------|
|
|   Gtr II
|    E  E  E  E  E  E  E  E    E  E  E  E  E  E  E  E
||-----19-15-19----19-15-19-|-------------------------|
||o-17----------17----------|----19-15-19----19-15-19-|
||--------------------------|-16----------16----------|
||--------------------------|-------------------------|
||o-------------------------|-------------------------|
||--------------------------|-------------------------|
|
|      Gtr V
|    E  E  E  E  E  E  E  E    E  E  E  E  E  E  E  E
||--------------------------|-------------------------|
||o-------------------------|-------------------------|
||------9--9--9--9--9--9--9-|-------------------------|
||--------------------------|-----9--9--9--9--9--9--9-|
||o-------------------------|-------------------------|
||--------------------------|-------------------------|


     G5                        B5
      PM---------------|        PM---------------|
   E  E  E  E  E  E  E  E    E  E  E  E  E  E  E  E
|-------------------------|---------------------------||
|-------------------------|--------------------------o||
|-------------------------|---------------------------||
|-------------------------|-----4--4--4--4--4--4--4---||
|-----5--5--5--5--5--5--5-|-----2--2--2--2--2--2--2--o||
|-----3--3--3--3--3--3--3-|---------------------------||
|
|  E  E  E  E  E  E  E  E    E  E  E  E  E  E  E  E
|----22-19-22----22-19-22-|---------------------------||
|-20----------20----------|----19-15-19----19-15-19--o||
|-------------------------|-16----------16------------||
|-------------------------|---------------------------||
|-------------------------|--------------------------o||
|-------------------------|---------------------------||
|
|  E  E  E  E  E  E  E  E    E  E  E  E  E  E  E  E
|-------------------------|---------------------------||
|-------------------------|--------------------------o||
|----12-12-12-12-12-12-12-|---------------------------||
|-------------------------|-----9--9--9--9--9--9--9---||
|-------------------------|--------------------------o||
|-------------------------|---------------------------||


 Bridge
  G5F#E5         F#E5Eb5        G5F#E5         F#E5Eb5
                                              6/4
  Gtr I
  E E E E H      E E E E H      E E E E H      E E E +E  +W
|--------------|--------------|--------------|------------------|
|--------------|--------------|--------------|------------------|
|--------------|-6-4-3--------|--------------|-6-4-3-(3)-(3)----|
|--------------|-4-2-1--------|--------------|-4-2-1-(1)-(1)----|
|-5-4-2--------|--------------|-5-4-2--------|------------------|
|-3-2-0--------|--------------|-3-2-0--------|------------------|


    Q=144
    N.C.
   4/4
    E E E S S E E E E   E E E S S E E E E
||--------------------|-------------------|
||o-------------------|-------------------|
||--------------------|-------------------|
||--------------------|-4-2-1-4-2-1-2-4-1-|
||o-------------------|-------------------|
||--3-2-0-3-2-0-2-3-0-|-------------------|


                     1.,2.,3.
  E E E S S E E E E   E E E S S E E E E  4x
|-------------------|--------------------||
|-------------------|-------------------o||
|-------------------|--------------------||
|-------------------|-4-2-1-4-2-1-2-4-1--||
|-------------------|-------------------o||
|-3-2-0-3-2-0-2-3-0-|--------------------||


  4.
  E E E S S E E E E   E E Q  E E E E   E E Q  E E E E   E E Q  E E E E
|-------------------|----------------|----------------|----------------|
|-------------------|----------------|----------------|----------------|
|-------------------|----------------|----------------|----------------|
|-4-2-1-4-2-1-2-1---|----------2-1---|----------2-1---|----------2-1---|
|-----------------3-|-2------------3-|-2------------3-|-2------------3-|
|-------------------|----------------|----------------|----------------|


                    B5
  E E E E E E E E   Q  Q  E E E E   Q  Q  E E E E   Q  Q  E E E E
|-----------------|---------------|---------------|---------------|
|-----------------|---------------|---------------|---------------|
|-----------------|---------------|---------------|---------------|
|---2-1-----2-1---|-4--4--4-4-4-4-|-4--4--4-4-4-4-|-4--4--4-4-4-4-|
|-2-----3-2-----3-|-2--2--2-2-2-2-|-2--2--2-2-2-2-|-2--2--2-2-2-2-|
|-----------------|---------------|---------------|---------------|


                          N.C.
  Q  Q  E E E E   Q  Q  E E E E   H    +E  E E E   H    +E  E E E
|---------------|---------------|----------------|----------------|
|---------------|---------------|----------------|----------------|
|---------------|---------------|----------------|----------------|
|-4--4--4-4-4-4-|-4--4--4-2-1---|----------2-1---|----------2-1---|
|-2--2--2-2-2-2-|-2--2--2-----3-|-2----(2)-----3-|-2----(2)-----3-|
|---------------|---------------|----------------|----------------|


                     D.S. al Coda    &
                             A5      N.C.          E5
  E E E E E E E E   H    +E  E E E   E E E E E E E E
|-----------------|----------------|-----------------|
|-----------------|----------------|-----------------|
|-----------------|----------------|-----------------|
|---2-1-----2-1---|----------2---2-|-----------------|
|-2-----3-2-----3-|-2----(2)-0---0-|-2-0-0---------2-|
|-----------------|----------------|-------3-3-2-2-0-|
|
| Gtr IV
| W                 W                E E E E E E E E
|-----------------|----------------|-----------------|
|-----------------|----------------|-----------------|
|-----------------|----------------|-4-2-2-----------|
|-----------------|----------------|-------5-5-4-4-2-|
|-----------------|----------------|-----------------|
|-----------------|----------------|-----------------|


   Outro
    N.C.
     PM-------|                PM----------|
     E E  E E  E S S  E  E     E   E  E  E  E S S E E
||-------------------------|--------------------------|
||o------------------------|--------------------------|
||-------------------------|--------------------------|
||-------------------------|--------------------------|
||o--------------4-2--1----|------------------4-2-1---|
||---2-2--2-2--2---------3-|---2---2--2--2--2-------3-|
|
|   Gtr IV
|    E E  E E  E S S  E  E     E   E  E  E  E S S E E
||-------------------------|--------------------------|
||o------------------------|--------------------------|
||---------------6-4--3----|------------------6-4-3---|
||---4-4--4-4--4---------5-|---4---4--4--4--4-------5-|
||o------------------------|--------------------------|
||-------------------------|--------------------------|
|
|   Gtr V
|    Q    Q    Q      E  E    +E   E  E  E  H
||----------------------12-|-(12)---------------------|
||o------14---12-----14----|------14-14-12-14---------|
||--11---------------------|--------------------------|
||-------------------------|--------------------------|
||o------------------------|--------------------------|
||-------------------------|--------------------------|


  PM------------------------------------|
  E E  E E  E S S  E  E     E   E  E  E  E S S E E
|-----------------------|---------------------------|
|-----------------------|---------------------------|
|-----------------------|---------------------------|
|-----------------------|---------------------------|
|-----------------------|------------------4-2-1----|
|-0-0--0-0--0-0-0--0--3-|---2---2--2--2--2-------3--|
|
| E E  E E  E S S  E  E     E   E  E  E  E S S E E
|-----------------------|---------------------------|
|-----------------------|---------------------------|
|-----------------------|------------------6-4-3----|
|-2-2--2-2--2-2-2--2--5-|---4---4--4--4--4-------5--|
|-----------------------|---------------------------|
|-----------------------|---------------------------|
|
| Q    Q    Q      E  E    +E   E  E  E  H
|--------------------12-|-(12)-10-------------------|
|-----12---10-----12----|---------14-12-14----------|
|-9---------------------|---------------------------|
|-----------------------|---------------------------|
|-----------------------|---------------------------|
|-----------------------|---------------------------|


   PM-------|                PM----------|
   E E  E E  E S S  E  E     E   E  E  E  E S S E E
|------------------------|--------------------------|
|------------------------|--------------------------|
|------------------------|--------------------------|
|------------------------|--------------------------|
|--------------4-2--1----|------------------4-2-1---|
|--2-2--2-2--2---------3-|---2---2--2--2--2-------3-|
|
|  E E  E E  E S S  E  E     E   E  E  E  E S S E E
|------------------------|--------------------------|
|------------------------|--------------------------|
|--------------6-4--3----|------------------6-4-3---|
|--4-4--4-4--4---------5-|---4---4--4--4--4-------5-|
|------------------------|--------------------------|
|------------------------|--------------------------|
|
|  Q    Q    Q      E  E    +E   E  E  E  H
|---------------------12-|-(12)---------------------|
|------14---12-----14----|------14-14-12-14---------|
|-11---------------------|--------------------------|
|------------------------|--------------------------|
|------------------------|--------------------------|
|------------------------|--------------------------|


 1.
  PM------------------------------------|
  E E  E E  E S S  E  E     E   E  E  E  E S S E E
|-----------------------|---------------------------||
|-----------------------|--------------------------o||
|-----------------------|---------------------------||
|-----------------------|---------------------------||
|-----------------------|------------------4-2-1---o||
|-0-0--0-0--0-0-0--0--3-|---2---2--2--2--2-------3--||
|
| E E  E E  E S S  E  E     E   E  E  E  E S S E E
|-----------------------|---------------------------||
|-----------------------|--------------------------o||
|-----------------------|------------------6-4-3----||
|-2-2--2-2--2-2-2--2--5-|---4---4--4--4--4-------5--||
|-----------------------|--------------------------o||
|-----------------------|---------------------------||
|
| Q    Q    Q      E  E    +E   E  E  E  H
|-----------------10-12-|-(12)-10-------------------||
|-----12---14-----------|---------14-12-14---------o||
|-9---------------------|---------------------------||
|-----------------------|---------------------------||
|-----------------------|--------------------------o||
|-----------------------|---------------------------||


  2.=H              Q=80
  E5        F#5G5   F#5
  |-3--|  |--3--|
  Q  Q Q  Q  Q  Q    W
|-----------------|-------*|
|-----------------|-------*|
|-----------------|-------*|
|-----------------|-------*|
|-2--2-2--2--4--5-|--4----*|
|-0--0-0--0--2--3-|--2----*|
|
| |-3--|  |--3--|
| Q  Q Q  Q  Q  Q    W
|-----------------|-------*|
|-----------------|-------*|
|-----------------|-------*|
|-2--2-2--2--4--5-|--4----*|
|-----------------|-------*|
|-----------------|-------*|
|
| |-3--|  |--3--|
| Q  Q Q  Q  Q  Q    W
|--------------10-|-------*|
|---12---12-14----|-14----*|
|-9----9----------|-------*|
|-----------------|-------*|
|-----------------|-------*|
|-----------------|-------*|



Duration Legend
---------------
W - whole; H - half; Q - quarter; E - 8th; S - 16th; T - 32nd; X - 64th; a - acciaccatura
+ - note tied to previous; . - note dotted; .. - note double dotted
Uncapitalized letters represent notes that are staccato (1/2 duration)
Irregular groupings are notated above the duration line
Duration letters will always appear directly above the note/fret number it represents the
duration for.  Duration letters with no fret number below them represent rests.  Multi-
bar rests are notated in the form Wxn, where n is the number of bars to rest for.  Low
melody durations appear below the staff

Tablature Legend
----------------
 h   - hammer-on
 p   - pull-off
 b   - bend
 pb  - pre-bend
 r   - bend release (if no number after the r, then release immediately)
 /\  - slide into or out of (from/to "nowhere")
 s   - legato slide
 S   - shift slide
 - natural harmonic
[n]  - artificial harmonic
n(n) - tapped harmonic
 ~   - vibrato
 tr  - trill
 T   - tap
 TP  - trem. picking
 PM  - palm muting
\n/  - tremolo bar dip; n = amount to dip
 \n  - tremolo bar down
 n/  - tremolo bar up
/n\  - tremolo bar inverted dip
 =   - hold bend; also acts as connecting device for hammers/pulls
 <> - volume swell (louder/softer)
 x   - on rhythm slash represents muted slash
 o   - on rhythm slash represents single note slash

Misc Legend
-----------
 |  - bar
||  - double bar
||o - repeat start
o|| - repeat end
*|  - double bar (ending)
 :  - bar (freetime)
 $  - Segno
 &  - Coda
Tempo markers -  = BPM(8/16=s8/s16), where s8 = swing 8ths, s16 = swing 16ths

Tap to rate this tab
 
# A B C D E F G H I J K L M N O P Q R S T U V W X Y Z