Guitaretab - guitar tabs
Song name
# A B C D E F G H I J K L M N O P Q R S T U V W X Y Z

Therion - To Mega Therion tab

#----------------------------------PLEASE NOTE---------------------------------#
#This file is the author's own work and represents their interpretation of the #
#song. You may only use this file for private study, scholarship, or research. #
#------------------------------------------------------------------------------#

TO MEGA THERION
As recorded by Therion
(From the 1996 Album THELI)

Transcribed by rumitema@freemail.hu
	

Words by T. Karlsson Music by C. Johnsson

Gtr I (Db Gb B E Ab Db) - 'Guitar 1'
Gtr II (Db Gb B E Ab Db) - 'Guitar 2'
Gtr III (Db Gb B E Ab Db) - 'Strings'
Gtr IV (Db Gb B E Ab Db) - 'Acoustic'
Gtr V (Db Gb B E Ab Db) - 'Synth'

 Verse
  Q=144
            E5
 4/4
  Gtrs I, II
            PM----|             PM         PM
  H    Q  E E     E E Q  H      E E H    E E
|-------------||--------------|---------------|
|-------------||o-------------|---------------|
|-------------||--------------|---------------|
|-------------||--------------|---------------|
|-----------2-||o-2-----------|-2----------2--|
|-----------0-||--0-----------|-0----------0--|


               1.
                B5          E5
  PM                        PM
  E E Q  H      H.      +E  E
|-------------|----------------||
|-------------|---------------o||
|-------------|----------------||
|-------------|-4-------(4)----||
|-2-----------|-2-------(2)-2-o||
|-0-----------|-------------0--||
|
| Gtr III
| W             W
|-------------|----------------||
|-------------|---------------o||
|-------------|----------------||
|-------------|----------------||
|-------------|---------------o||
|-------------|----------------||


 2.
  B5
  W                        +W
|------------------------|--------------------------|
|------------------------|--------------------------|
|------------------------|--------------------------|
|-4----------------------|-(4)----------------------|
|-2----------------------|-(2)----------------------|
|------------------------|--------------------------|
|
| E  e  e  e  e  e  e  e    e   e  e  e  e  e  e  e
|---19-17-15-------------|--------------------------|
|---20-19-17-19-17-16----|--------------------------|
|------------20-17-16-16-|--------------------------|
|---------------------17-|-19--17-16-17-19-17-16-19-|
|------------------------|-21--19-18-19-21-19-18-21-|
|------------------------|--------------------------|
  E  e  e  e  e  e  e  e    e   e  e  e  e  e  e  e


  N.C.
   PM----------------------------------------------|
   E S S E S S E S S E S S   E S S E S S E S S E S S
|--------------------------|-------------------------|
|--------------------------|-------------------------|
|--------------------------|-------------------------|
|--------------------------|-------------------------|
|--------------------------|-------------------------|
|--0-0-0-0-0-0-0-0-0-0-0-0-|-0-0-0-0-0-0-0-0-0-0-0-0-|
|
|  Q     Q     H             W
|--------------------------|-------------------------|
|--------------------------|-------------------------|
|--------------------------|-------------------------|
|-17-----------------------|-------------------------|
|-19-----------------------|-------------------------|
|--------------------------|-------------------------|
   q     Q     H


                            B5
  PM--------------------|      PM|     PM|     PM-----|
  E S S E S S E S S E S S   E  S S  E  S S  E  S S  E  E
|-------------------------|------------------------------|
|-------------------------|------------------------------|
|-------------------------|------------------------------|
|-------------------------|-4-------4-------4------------|
|-------------------------|-2--2-2--2--2-2--2--2-2-------|
|-0-0-0-0-0-0-0-0-0-0-0-0-|-------------------------3--2-|
|
| W                         E  E    E  E    E  E    E  E
|-------------------------|---17---15-14-----------------|
|-------------------------|---19---17-16---17-16---------|
|-------------------------|----------------17-16---16-14-|
|-------------------------|------------------------17-16-|
|-------------------------|------------------------------|
|-------------------------|------------------------------|
                            E  E    E  E    E  E    E  E


    N.C.
    Gtrs I, II
     PM----------------------------------------------|
     E S S E S S E S S E S S   E S S E S S E S S E S S
||---------------------------|-------------------------|
||o--------------------------|-------------------------|
||---------------------------|-------------------------|
||---------------------------|-------------------------|
||o--------------------------|-------------------------|
||---0-0-0-0-0-0-0-0-0-0-0-0-|-0-0-0-0-0-0-0-0-0-0-0-0-|
|
|    Q     Q     H             W
||---------------------------|-------------------------|
||o--------------------------|-------------------------|
||---------------------------|-------------------------|
||--17-----------------------|-------------------------|
||o-19-----------------------|-------------------------|
||---------------------------|-------------------------|
     Q     Q     H


                            B5
  PM--------------------|      PM|     PM|     PM-----|
  E S S E S S E S S E S S   E  S S  E  S S  E  S S  E  E  3x
|-------------------------|-------------------------------||
|-------------------------|------------------------------o||
|-------------------------|-------------------------------||
|-------------------------|-4-------4-------4-------------||
|-------------------------|-2--2-2--2--2-2--2--2-2-------o||
|-0-0-0-0-0-0-0-0-0-0-0-0-|-------------------------3--2--||
|
| W                         E  E    E  E    E  E    E  E  3x
|-------------------------|---17---15-14------------------||
|-------------------------|---19---17-16---17-16---------o||
|-------------------------|----------------17-16---16-14--||
|-------------------------|------------------------17-16--||
|-------------------------|------------------------------o||
|-------------------------|-------------------------------||
                            E  E    E  E    E  E    E  E


   Chorus
    E5           D#5/A#       B5        C5B5
    H.      Q    H.      Q    Q  Q  E E E E
||-------------|------------|---------------|
||o------------|------------|---------------|
||-------------|------------|---------------|
||-------------|-1-------1--|-4--4--4-4-5-4-|
||o-2-------2--|-1-------1--|-2--2--2-2-3-2-|
||--0-------0--|------------|---------------|


                    1.
           D#5       B5        C5B5           D#5
  +E  E Q  E E E E   Q  Q  E E E E   +E  E Q  E E E E
|------------------|---------------|-------------------||
|------------------|---------------|------------------o||
|------------------|---------------|-------------------||
|-(4)-4-4--8-8-8-8-|-4--4--4-4-5-4-|-(4)-4-4--8-8-8-8--||
|-(2)-2-2--6-6-6-6-|-2--2--2-2-3-2-|-(2)-2-2--6-6-6-6-o||
|------------------|---------------|-------------------||


  2.
  B5        C5B5           D#5   E5
                                 PM
  Q  Q  E E E E   +E  E Q  E E E E
|---------------|------------------|
|---------------|------------------|
|---------------|------------------|
|-4--4--4-4-5-4-|-(4)-4-4--8-8-8---|
|-2--2--2-2-3-2-|-(2)-2-2--6-6-6-2-|
|---------------|----------------0-|


   Verse
                                              1.
                                               B5          E5B5
    PM            PM         PM--|                         PM
    E E Q  H      E E H    E E   E E Q  H      H.      +E  E
||--------------|--------------|-------------|-----------------||
||o-------------|--------------|-------------|----------------o||
||--------------|--------------|-------------|-----------------||
||--------------|--------------|-------------|-4-------(4)-----||
||o-2-----------|-2----------2-|-2-----------|-2-------(2)-2--o||
||--0-----------|-0----------0-|-0-----------|-------------0---||


  2.
  W                        +W
|------------------------|--------------------------|
|------------------------|--------------------------|
|------------------------|--------------------------|
|-4----------------------|-(4)----------------------|
|-2----------------------|-(2)----------------------|
|------------------------|--------------------------|
|
| Gtr III
| E  e  e  e  e  e  e  e    e   e  e  e  e  e  e  e
|---19-17-15-------------|--------------------------|
|---20-19-17-19-17-16----|--------------------------|
|------------20-17-16-16-|--------------------------|
|---------------------17-|-19--17-16-17-19-17-16-19-|
|------------------------|-21--19-18-19-21-19-18-21-|
|------------------------|--------------------------|
  E  e  e  e  e  e  e  e    e   e  e  e  e  e  e  e


  N.C.
   PM----------------------------------------------|
   E S S E S S E S S E S S   E S S E S S E S S E S S
|--------------------------|-------------------------|
|--------------------------|-------------------------|
|--------------------------|-------------------------|
|--------------------------|-------------------------|
|--------------------------|-------------------------|
|--0-0-0-0-0-0-0-0-0-0-0-0-|-0-0-0-0-0-0-0-0-0-0-0-0-|
|
|  q     Q     H             W
|--------------------------|-------------------------|
|--------------------------|-------------------------|
|--------------------------|-------------------------|
|-17-----------------------|-------------------------|
|-19-----------------------|-------------------------|
|--------------------------|-------------------------|
   q     Q     H


                            B5
  PM--------------------|      PM|     PM|     PM-----|
  E S S E S S E S S E S S   E  S S  E  S S  E  S S  E  E
|-------------------------|------------------------------|
|-------------------------|------------------------------|
|-------------------------|------------------------------|
|-------------------------|-4-------4-------4------------|
|-------------------------|-2--2-2--2--2-2--2--2-2-------|
|-0-0-0-0-0-0-0-0-0-0-0-0-|-------------------------3--2-|
|
| W                         E  E    E  E    E  E    E  E
|-------------------------|---17---15-14-----------------|
|-------------------------|---19---17-16---17-16---------|
|-------------------------|----------------17-16---16-14-|
|-------------------------|------------------------17-16-|
|-------------------------|------------------------------|
|-------------------------|------------------------------|
                            E  E    E  E    E  E    E  E


    N.C.
    Gtrs I, II
     PM----------------------------------------------|
     E S S E S S E S S E S S   E S S E S S E S S E S S
||---------------------------|-------------------------|
||o--------------------------|-------------------------|
||---------------------------|-------------------------|
||---------------------------|-------------------------|
||o--------------------------|-------------------------|
||---0-0-0-0-0-0-0-0-0-0-0-0-|-0-0-0-0-0-0-0-0-0-0-0-0-|
|
|    Q     Q     H             W
||---------------------------|-------------------------|
||o--------------------------|-------------------------|
||---------------------------|-------------------------|
||--17-----------------------|-------------------------|
||o-19-----------------------|-------------------------|
||---------------------------|-------------------------|
     Q     Q     H


                            B5
  PM--------------------|      PM|     PM|     PM-----|
  E S S E S S E S S E S S   E  S S  E  S S  E  S S  E  E  3x
|-------------------------|-------------------------------||
|-------------------------|------------------------------o||
|-------------------------|-------------------------------||
|-------------------------|-4-------4-------4-------------||
|-------------------------|-2--2-2--2--2-2--2--2-2-------o||
|-0-0-0-0-0-0-0-0-0-0-0-0-|-------------------------3--2--||
|
| W                         E  E    E  E    E  E    E  E  3x
|-------------------------|---17---15-14------------------||
|-------------------------|---19---17-16---17-16---------o||
|-------------------------|----------------17-16---16-14--||
|-------------------------|------------------------17-16--||
|-------------------------|------------------------------o||
|-------------------------|-------------------------------||
                            E  E    E  E    E  E    E  E


   Chorus
    E5           D#5/A#       B5        C5
    H.      Q    H.      Q    Q  Q  E E E E
||-------------|------------|---------------|
||o------------|------------|---------------|
||-------------|------------|---------------|
||-------------|-1-------1--|-4--4--4-4-5-4-|
||o-2-------2--|-1-------1--|-2--2--2-2-3-2-|
||--0-------0--|------------|---------------|


                    1.
           D#5       B5        C5B5           D#5
  +E  E Q  E E E E   Q  Q  E E E E   +E  E Q  E E E E
|------------------|---------------|-------------------||
|------------------|---------------|------------------o||
|------------------|---------------|-------------------||
|-(4)-4-4--8-8-8-8-|-4--4--4-4-5-4-|-(4)-4-4--8-8-8-8--||
|-(2)-2-2--6-6-6-6-|-2--2--2-2-3-2-|-(2)-2-2--6-6-6-6-o||
|------------------|---------------|-------------------||


  2.
  B5        C5B5           D#5
  Q  Q  E E E E   +E  E Q  E E E E
|---------------|------------------|
|---------------|------------------|
|---------------|------------------|
|-4--4--4-4-5-4-|-(4)-4-4--8-8-8-8-|
|-2--2--2-2-3-2-|-(2)-2-2--6-6-6-6-|
|---------------|------------------|


 Interlude
  N.C.
  Gtr I
  E E Q   +H          +W
|-------------------|-------------------|
|-----7---(7)-------|-(7)---------------|
|---7---------------|-------------------|
|-9-----------------|-------------------|
|-------------------|-------------------|
|-------------------|-------------------|
|
| Gtr II
| PM-------------------------------------
| E E E E  E  E E E    E  E E E E E E E
|-------------------|-------------------|
|-------------------|-------------------|
|-------------------|-------------------|
|----------4--4-----|-----------4-4-----|
|-2-2-5-5-------5-5-|--2--2-5-5-----5-5-|
|-------------------|-------------------|


  E E Q   +H          +W
|-------------------|--------------------|
|-----5---(5)-------|-(5)----------------|
|---6---------------|--------------------|
|-8-----------------|--------------------|
|-------------------|--------------------|
|-------------------|--------------------|
|
|-------------------------------------|
| E E E E  E  E E E    E  E E E E E E E
|-------------------|--------------------|
|-------------------|--------------------|
|-------------------|--------------------|
|----------2--2-----|-----------2-2------|
|-1-1-4-4-------4-4-|--1--1-4-4-----4-4--|
|-------------------|--------------------|


   E E Q   +H          +W
|--------------------|-------------------|
|------8---(8)-------|-(8)---------------|
|----9---------------|-------------------|
|-11-----------------|-------------------|
|--------------------|-------------------|
|--------------------|-------------------|
|
|  PM-------------------------------------
|  E E E E  E  E E E    E  E E E E E E E
|--------------------|-------------------|
|--------------------|-------------------|
|--------------------|-------------------|
|------2-2--5--5-2-2-|-------2-2-5-5-2-2-|
|--4-4---------------|--4--4-------------|
|--------------------|-------------------|


  E E Q   +H          +W
|-------------------|--------------------|
|-----7---(7)-------|-(7)----------------|
|---7---------------|--------------------|
|-9-----------------|--------------------|
|-------------------|--------------------|
|-------------------|--------------------|
|
|-------------------------------------|
| E E E E  E  E E E    E  E E E E E E E
|-------------------|--------------------|
|-------------------|--------------------|
|-------------------|--------------------|
|----------4--4-----|-----------4-4------|
|-2-2-5-5-------5-5-|--2--2-5-5-----5-5--|
|-------------------|--------------------|


  Gtrs I, II
  PM------------------------------------------------------------------|
  E E E E E E E E   E E E E E E E E   E E E E E E E E   E E E E E E E E
|-----------------|-----------------|-----------------|------------------|
|-----------------|-----------------|-----------------|------------------|
|-----------------|-----------------|-----------------|------------------|
|---------4-4-----|---------4-4-----|---------2-2-----|---------2-2------|
|-2-2-5-5-----5-5-|-2-2-5-5-----5-5-|-1-1-4-4-----4-4-|-1-1-4-4-----4-4--|
|-----------------|-----------------|-----------------|------------------|
|
| Gtr III
| PM------------------------------------------------------------------|
| E E E E E E E E   E E E E E E E E   E E E E E E E E   E E E E E E E E
|-----------------|-----------------|-----------------|------------------|
|---------7-7-----|---------7-7-----|---------5-5-----|---------5-5------|
|-4-4-7-7-----7-7-|-4-4-7-7-----7-7-|-3-3-6-6-----6-6-|-3-3-6-6-----6-6--|
|-----------------|-----------------|-----------------|------------------|
|-----------------|-----------------|-----------------|------------------|
|-----------------|-----------------|-----------------|------------------|


  PM------------------------------------------------------------------|
  E E E E E E E E   E E E E E E E E   E E E E E E E E   E E E E E E E E
|-----------------|-----------------|-----------------|------------------|
|-----------------|-----------------|-----------------|------------------|
|-----------------|-----------------|-----------------|------------------|
|-----2-2-5-5-2-2-|-----2-2-5-5-2-2-|---------4-4-----|---------4-4------|
|-4-4-------------|-4-4-------------|-2-2-5-5-----5-5-|-2-2-5-5-----5-5--|
|-----------------|-----------------|-----------------|------------------|
|
| PM------------------------------------------------------------------|
| E E E E E E E E   E E E E E E E E   E E E E E E E E   E E E E E E E E
|-----------------|-----------------|-----------------|------------------|
|-----5-5-8-8-5-5-|-----5-5-8-8-5-5-|---------7-7-----|---------7-7------|
|-6-6-------------|-6-6-------------|-4-4-7-7-----7-7-|-4-4-7-7-----7-7--|
|-----------------|-----------------|-----------------|------------------|
|-----------------|-----------------|-----------------|------------------|
|-----------------|-----------------|-----------------|------------------|


  D/B                                   C#m/A#
  Gtr IV
  W                 +W                  W                 +W
|-----------------|-------------------|-----------------|--------------------|
|-7---------------|-(7)---------------|-5---------------|-(5)----------------|
|-7---------------|-(7)---------------|-6---------------|-(6)----------------|
|-9---------------|-(9)---------------|-8---------------|-(8)----------------|
|-----------------|-------------------|-----------------|--------------------|
|-----------------|-------------------|-----------------|--------------------|
|
| Gtr II
| PM----------------------------------------------------------------------|
| E E E E E E E E    E  E E E E E E E   E E E E E E E E    E  E E E E E E E
|-----------------|-------------------|-----------------|--------------------|
|-----------------|-------------------|-----------------|--------------------|
|-----------------|-------------------|-----------------|--------------------|
|---------4-4-----|-----------4-4-----|---------2-2-----|-----------2-2------|
|-2-2-5-5-----5-5-|--2--2-5-5-----5-5-|-1-1-4-4-----4-4-|--1--1-4-4-----4-4--|
|-----------------|-------------------|-----------------|--------------------|
|
| Gtr III
| PM----------------------------------------------------------------------|
| E E E E E E E E    E  E E E E E E E   E E E E E E E E    E  E E E E E E E
|-----------------|-------------------|-----------------|--------------------|
|---------7-7-----|-----------7-7-----|---------5-5-----|-----------5-5------|
|-4-4-7-7-----7-7-|--4--4-7-7-----7-7-|-3-3-6-6-----6-6-|--3--3-6-6-----6-6--|
|-----------------|-------------------|-----------------|--------------------|
|-----------------|-------------------|-----------------|--------------------|
|-----------------|-------------------|-----------------|--------------------|


  Em/C#                                   D/B
   W                  +W                  W                 +W
|------------------|--------------------|-----------------|--------------------|
|--8---------------|--(8)---------------|-7---------------|-(7)----------------|
|--9---------------|--(9)---------------|-7---------------|-(7)----------------|
|-11---------------|-(11)---------------|-9---------------|-(9)----------------|
|------------------|--------------------|-----------------|--------------------|
|------------------|--------------------|-----------------|--------------------|
|
|  PM-----------------------------------------------------------------------|
|  E E E E E E E E     E  E E E E E E E   E E E E E E E E    E  E E E E E E E
|------------------|--------------------|-----------------|--------------------|
|------------------|--------------------|-----------------|--------------------|
|------------------|--------------------|-----------------|--------------------|
|------2-2-5-5-2-2-|--------2-2-5-5-2-2-|---------4-4-----|-----------4-4------|
|--4-4-------------|---4--4-------------|-2-2-5-5-----5-5-|--2--2-5-5-----5-5--|
|------------------|--------------------|-----------------|--------------------|
|
|  PM-----------------------------------------------------------------------|
|  E E E E E E E E     E  E E E E E E E   E E E E E E E E    E  E E E E E E E
|------------------|--------------------|-----------------|--------------------|
|------5-5-8-8-5-5-|--------5-5-8-8-5-5-|---------7-7-----|-----------7-7------|
|--6-6-------------|---6--6-------------|-4-4-7-7-----7-7-|--4--4-7-7-----7-7--|
|------------------|--------------------|-----------------|--------------------|
|------------------|--------------------|-----------------|--------------------|
|------------------|--------------------|-----------------|--------------------|


   Chorus
    D5             A5             B5             F#5
    Gtrs I, II
    Q.   Q.   Q    Q.   Q.   Q    Q.   Q.   Q    Q.   Q.   Q
||---------------|--------------|--------------|--------------|
||o--------------|--------------|--------------|--------------|
||--2----2----2--|--------------|--------------|--------------|
||--0----0----0--|-2----2----2--|-4----4----4--|--------------|
||o--------------|-0----0----0--|-2----2----2--|-4----4----4--|
||---------------|--------------|--------------|-2----2----2--|


  B5             F#5            A5
  Q.   Q.   Q    Q.   Q.   Q    Q.   Q.   Q    Q.   Q.   Q
|--------------|--------------|--------------|----------------||
|--------------|--------------|--------------|---------------o||
|--------------|--------------|--------------|----------------||
|-4----4----4--|--------------|-2----2----2--|-2----2----2----||
|-2----2----2--|-4----4----4--|-0----0----0--|-0----0----0---o||
|--------------|-2----2----2--|--------------|----------------||


 Interlude
  N.C.
  Gtr I
   |------6-------|
   S  S  S  S  S  S  Q    H
|-17-15-14--------------------------------------|
|----------17-15-14-----------------------------|
|-------------------16--------------------------|
|-----------------------------------------------|
|-----------------------------------------------|
|-----------------------------------------------|
|
| Gtr II
|  PM--------------------------------------------
|  E        E        E E  E        E        E E
|-----------------------------------------------|
|-----------------------------------------------|
|-----------------------------------------------|
|-------------------------4--------4------------|
|--2--------2--------5-5--------------------5-5-|
|-----------------------------------------------|
|
| Gtr III
|                         |------6-------|
|  H                      S  S  S  S  S  S  Q
|------------------------17-15-14---------------|
|---------------------------------17-15-14------|
|------------------------------------------16---|
|-----------------------------------------------|
|-----------------------------------------------|
|-----------------------------------------------|


   |------6-------|
   S  S  S  S  S  S  Q    H
|-17-15-14--------------------------------------|
|----------17-15-14-----------------------------|
|-------------------16--------------------------|
|-----------------------------------------------|
|-----------------------------------------------|
|-----------------------------------------------|
|
|---------------------------------------------|
|  E        E        E E  E        E        E E
|-----------------------------------------------|
|-----------------------------------------------|
|-----------------------------------------------|
|-------------------------4--------4------------|
|--2--------2--------5-5--------------------5-5-|
|-----------------------------------------------|
|
|                         |------6-------|
|  H                      S  S  S  S  S  S  Q
|------------------------17-15-14---------------|
|---------------------------------17-15-14------|
|------------------------------------------16---|
|-----------------------------------------------|
|-----------------------------------------------|
|-----------------------------------------------|


   |------6-------|
   S  S  S  S  S  S  Q    H
|-17-15-14--------------------------------------|
|----------17-15-14-----------------------------|
|-------------------15--------------------------|
|-----------------------------------------------|
|-----------------------------------------------|
|-----------------------------------------------|
|
|  PM--------------------------------------------
|  E        E        E E  E        E        E E
|-----------------------------------------------|
|-----------------------------------------------|
|-----------------------------------------------|
|-------------------------2--------2------------|
|--1--------1--------4-4--------------------4-4-|
|-----------------------------------------------|
|
|                         |------6-------|
|  H                      S  S  S  S  S  S  Q
|------------------------17-15-14---------------|
|---------------------------------17-15-14------|
|------------------------------------------15---|
|-----------------------------------------------|
|-----------------------------------------------|
|-----------------------------------------------|


   |------6-------|
   S  S  S  S  S  S  Q    H
|-17-15-14--------------------------------------|
|----------17-15-14-----------------------------|
|-------------------15--------------------------|
|-----------------------------------------------|
|-----------------------------------------------|
|-----------------------------------------------|
|
|---------------------------------------------|
|  E        E        E E  E        E        E E
|-----------------------------------------------|
|-----------------------------------------------|
|-----------------------------------------------|
|-------------------------2--------2------------|
|--1--------1--------4-4--------------------4-4-|
|-----------------------------------------------|
|
|                         |------6-------|
|  H                      S  S  S  S  S  S  Q
|------------------------17-15-14---------------|
|---------------------------------17-15-14------|
|------------------------------------------15---|
|-----------------------------------------------|
|-----------------------------------------------|
|-----------------------------------------------|


   |------6-------|
   S  S  S  S  S  S  +Q     H
|-17-15-14------------------------------------------|
|----------17-15-14-(14)----------------------------|
|---------------------------------------------------|
|---------------------------------------------------|
|---------------------------------------------------|
|---------------------------------------------------|
|
|  PM------------------------------------------------
|  E        E         E  E  E        E         E  E
|---------------------------------------------------|
|---------------------------------------------------|
|---------------------------------------------------|
|---------------------2--2--5--------5---------2--2-|
|--4--------4---------------------------------------|
|---------------------------------------------------|
|
|                           |------6-------|
|  H                        S  S  S  S  S  S  +Q
|--------------------------17-15-14-----------------|
|-----------------------------------17-15-14-(14)---|
|---------------------------------------------------|
|---------------------------------------------------|
|---------------------------------------------------|
|---------------------------------------------------|


   |------6-------|
   S  S  S  S  S  S  +Q     H
|-17-15-14------------------------------------------|
|----------17-15-14-(14)----------------------------|
|---------------------------------------------------|
|---------------------------------------------------|
|---------------------------------------------------|
|---------------------------------------------------|
|
|-------------------------------------------------|
|  E        E         E  E  E        E         E  E
|---------------------------------------------------|
|---------------------------------------------------|
|---------------------------------------------------|
|---------------------2--2--5--------5---------2--2-|
|--4--------4---------------------------------------|
|---------------------------------------------------|
|
|                           |------6-------|
|  H                        S  S  S  S  S  S  +Q
|--------------------------17-15-14-----------------|
|-----------------------------------17-15-14-(14)---|
|---------------------------------------------------|
|---------------------------------------------------|
|---------------------------------------------------|
|---------------------------------------------------|


   |------6-------|
   S  S  S  S  S  S  Q    H
|-17-15-14--------------------------------------|
|----------17-15-14-----------------------------|
|-------------------16--------------------------|
|-----------------------------------------------|
|-----------------------------------------------|
|-----------------------------------------------|
|
|  PM--------------------------------------------
|  E        E        E E  E        E        E E
|-----------------------------------------------|
|-----------------------------------------------|
|-----------------------------------------------|
|-------------------------4--------4------------|
|--2--------2--------5-5--------------------5-5-|
|-----------------------------------------------|
|
|                         |------6-------|
|  H                      S  S  S  S  S  S  Q
|------------------------17-15-14---------------|
|---------------------------------17-15-14------|
|------------------------------------------16---|
|-----------------------------------------------|
|-----------------------------------------------|
|-----------------------------------------------|


   |------6-------|
   S  S  S  S  S  S  Q    H
|-17-15-14--------------------------------------|
|----------17-15-14-----------------------------|
|-------------------16--------------------------|
|-----------------------------------------------|
|-----------------------------------------------|
|-----------------------------------------------|
|
|---------------------------------------------|
|  E        E        E E  E        E        E E
|-----------------------------------------------|
|-----------------------------------------------|
|-----------------------------------------------|
|-------------------------4--------4------------|
|--2--------2--------5-5--------------------5-5-|
|-----------------------------------------------|
|
|                         |------6-------|
|  H                      S  S  S  S  S  S  Q
|------------------------17-15-14---------------|
|---------------------------------17-15-14------|
|------------------------------------------16---|
|-----------------------------------------------|
|-----------------------------------------------|
|-----------------------------------------------|


 Guitar Solo
  N.C.
   W                                 +H.                          E  E
|---------------------------------|------------------------------------|
|-12------------------------------|-(12)-------------------------14-12-|
|---------------------------------|------------------------------------|
|---------------------------------|------------------------------------|
|---------------------------------|------------------------------------|
|---------------------------------|------------------------------------|
|
|  PM---------------------------------------------------------------|
|  E E E E  E        E        E E     E  E E E  E        E        E  E
|---------------------------------|------------------------------------|
|---------------------------------|------------------------------------|
|---------------------------------|------------------------------------|
|-----------4--------4------------|-------------4--------4-------------|
|--2-2-5-5--------------------5-5-|---2--2-5-5--------------------5--5-|
|---------------------------------|------------------------------------|
|
|           |------6-------|                    |------6-------|
|  H        S  S  S  S  S  S  Q       H         S  S  S  S  S  S  Q
|----------17-15-14---------------|------------17-15-14----------------|
|-------------------17-15-14------|---------------------17-15-14-------|
|----------------------------16---|------------------------------16----|
|---------------------------------|------------------------------------|
|---------------------------------|------------------------------------|
|---------------------------------|------------------------------------|


   W                                 +H.                          E  E
|---------------------------------|------------------------------------|
|-11------------------------------|-(11)-------------------------11-12-|
|---------------------------------|------------------------------------|
|---------------------------------|------------------------------------|
|---------------------------------|------------------------------------|
|---------------------------------|------------------------------------|
|
|  PM---------------------------------------------------------------|
|  E E E E  E        E        E E     E  E E E  E        E        E  E
|---------------------------------|------------------------------------|
|---------------------------------|------------------------------------|
|---------------------------------|------------------------------------|
|-----------2--------2------------|-------------2--------2-------------|
|--1-1-4-4--------------------4-4-|---1--1-4-4--------------------4--4-|
|---------------------------------|------------------------------------|
|
|           |------6-------|                    |------6-------|
|  H        S  S  S  S  S  S  Q       H         S  S  S  S  S  S  Q
|----------17-15-14---------------|------------17-15-14----------------|
|-------------------17-15-14------|---------------------17-15-14-------|
|----------------------------15---|------------------------------15----|
|---------------------------------|------------------------------------|
|---------------------------------|------------------------------------|
|---------------------------------|------------------------------------|


   W                                   +H         E        E         E   E
|-----------------------------------|------------12------------------------|
|-14--------------------------------|-(14)----------------14--------12--11-|
|-----------------------------------|--------------------------------------|
|-----------------------------------|--------------------------------------|
|-----------------------------------|--------------------------------------|
|-----------------------------------|--------------------------------------|
|
|  PM-------------------------------------------------------------------|
|  E E E E  E        E         E  E     E  E E E  E        E         E   E
|-----------------------------------|--------------------------------------|
|-----------------------------------|--------------------------------------|
|-----------------------------------|--------------------------------------|
|------2-2--5--------5---------2--2-|--------2-2--5--------5---------2---2-|
|--4-4------------------------------|---4--4-------------------------------|
|-----------------------------------|--------------------------------------|
|
|           |------6-------|                      |------6-------|
|  H        S  S  S  S  S  S  +Q        H         S  S  S  S  S  S  +Q
|----------17-15-14-----------------|------------17-15-14------------------|
|-------------------17-15-14-(14)---|---------------------17-15-14-(14)----|
|-----------------------------------|--------------------------------------|
|-----------------------------------|--------------------------------------|
|-----------------------------------|--------------------------------------|
|-----------------------------------|--------------------------------------|


   W                                 +H         E        E        E  E
|---------------------------------|------------------------------------|
|-12------------------------------|-(12)----------------17-------19-20-|
|---------------------------------|------------19----------------------|
|---------------------------------|------------------------------------|
|---------------------------------|------------------------------------|
|---------------------------------|------------------------------------|
|
|  PM---------------------------------------------------------------|
|  E E E E  E        E        E E     E  E E E  E        E        E  E
|---------------------------------|------------------------------------|
|---------------------------------|------------------------------------|
|---------------------------------|------------------------------------|
|-----------4--------4------------|-------------4--------4-------------|
|--2-2-5-5--------------------5-5-|---2--2-5-5--------------------5--5-|
|---------------------------------|------------------------------------|
|
|           |------6-------|                    |------6-------|
|  H        S  S  S  S  S  S  Q       H         S  S  S  S  S  S  Q
|----------17-15-14---------------|------------17-15-14----------------|
|-------------------17-15-14------|---------------------17-15-14-------|
|----------------------------16---|------------------------------16----|
|---------------------------------|------------------------------------|
|---------------------------------|------------------------------------|
|---------------------------------|------------------------------------|


 Chorus
  D                 C#m               Bm             F#m
   W                 Q.    Q.    Q    Q.   Q.   Q    Q.   Q.   Q
|-----------------|-----------------|--------------|---------------|
|-19--------------|-----------------|--------------|---------------|
|-11----11----11--|--9-----9-----9--|-7----7----7--|---------------|
|-12----12----12--|-11----11----11--|-9----9----9--|-7----7----7---|
|-----------------|-----------------|--------------|-9----9----9---|
|-----------------|-----------------|--------------|---------------|
|  Q.    Q.    Q
|
|  Q.    Q.    Q     Q.    Q.    Q    Q.   Q.   Q    Q.   Q.   Q
|-----------------|-----------------|--------------|---------------|
|-----------------|-----------------|--------------|---------------|
|-----------------|-----------------|--------------|---------------|
|--0-----0-----0--|-----------------|--------------|---------------|
|-----------------|--0-----0-----0--|-2----2----2--|---------------|
|-----------------|-----------------|--------------|-2----2----2---|


  Bm             F#m            A                 A5    D5/A  A
  Q.   Q.   Q    Q.   Q.   Q     Q.    Q.    Q     Q.    Q.    Q
|--------------|--------------|-----------------|------------------|
|--------------|--------------|-----------------|------------------|
|-7----7----7--|--------------|-----------------|------------------|
|-9----9----9--|-7----7----7--|-11----11----11--|-14----12----11---|
|--------------|-9----9----9--|-12----12----12--|-12----12----12---|
|--------------|--------------|-----------------|------------------|
|
| Q.   Q.   Q    Q.   Q.   Q     Q.    Q.    Q     Q.    Q.    Q
|--------------|--------------|-----------------|------------------|
|--------------|--------------|-----------------|------------------|
|--------------|--------------|-----------------|------------------|
|--------------|--------------|-----------------|------------------|
|-2----2----2--|--------------|--0-----0-----0--|--0-----0-----0---|
|--------------|-2----2----2--|-----------------|------------------|

[ Tab from: http://www.guitaretab.com/t/therion/44734.html ]
  D                 C#m               Bm             F#m
   Q.    Q.    Q     Q.    Q.    Q    Q.   Q.   Q    Q.   Q.   Q
|-----------------|-----------------|--------------|---------------|
|-----------------|-----------------|--------------|---------------|
|-11----11----11--|--9-----9-----9--|-7----7----7--|---------------|
|-12----12----12--|-11----11----11--|-9----9----9--|-7----7----7---|
|-----------------|-----------------|--------------|-9----9----9---|
|-----------------|-----------------|--------------|---------------|
|
|  Q.    Q.    Q     Q.    Q.    Q    Q.   Q.   Q    Q.   Q.   Q
|-----------------|-----------------|--------------|---------------|
|-----------------|-----------------|--------------|---------------|
|-----------------|-----------------|--------------|---------------|
|--0-----0-----0--|-----------------|--------------|---------------|
|-----------------|--0-----0-----0--|-2----2----2--|---------------|
|-----------------|-----------------|--------------|-2----2----2---|


  Bm             F#m            A                 A5    D5/A  A  E5
  Q.   Q.   Q    Q.   Q.   Q     Q.    Q.    Q     Q.    Q.    E E
|--------------|--------------|-----------------|-------------------|
|--------------|--------------|-----------------|-------------------|
|-7----7----7--|--------------|-----------------|-------------------|
|-9----9----9--|-7----7----7--|-11----11----11--|-14----12----11----|
|--------------|-9----9----9--|-12----12----12--|-12----12----12-2--|
|--------------|--------------|-----------------|----------------0--|
|
| Q.   Q.   Q    Q.   Q.   Q     Q.    Q.    Q     Q.    Q.    E E
|--------------|--------------|-----------------|-------------------|
|--------------|--------------|-----------------|-------------------|
|--------------|--------------|-----------------|-------------------|
|--------------|--------------|-----------------|-------------------|
|-2----2----2--|--------------|--0-----0-----0--|--0-----0-----0----|
|--------------|-2----2----2--|-----------------|----------------0--|


 Verse
  E5
  Gtrs I, II
  PM            PM         PM--|
  E E Q  H      E E H    E E   E E Q  H
|-------------|--------------|-------------|
|-------------|--------------|-------------|
|-------------|--------------|-------------|
|-------------|--------------|-------------|
|-2-----------|-2----------2-|-2-----------|
|-0-----------|-0----------0-|-0-----------|


  B5
  W                        +W
|------------------------|--------------------------|
|------------------------|--------------------------|
|------------------------|--------------------------|
|-4----------------------|-(4)----------------------|
|-2----------------------|-(2)----------------------|
|------------------------|--------------------------|
|
| Gtr III
| E  e  e  e  e  e  e  e    e   e  e  e  e  e  e  e
|---19-17-15-------------|--------------------------|
|---20-19-17-19-17-16----|--------------------------|
|------------20-17-16-16-|--------------------------|
|---------------------17-|-19--17-16-17-19-17-16-19-|
|------------------------|-21--19-18-19-21-19-18-21-|
|------------------------|--------------------------|
  E  e  e  e  e  e  e  e    e   e  e  e  e  e  e  e


  N.C.
   PM----------------------------------------------|
   E S S E S S E S S E S S   E S S E S S E S S E S S
|--------------------------|-------------------------|
|--------------------------|-------------------------|
|--------------------------|-------------------------|
|--------------------------|-------------------------|
|--------------------------|-------------------------|
|--0-0-0-0-0-0-0-0-0-0-0-0-|-0-0-0-0-0-0-0-0-0-0-0-0-|
|
|  q     Q     H             W
|--------------------------|-------------------------|
|--------------------------|-------------------------|
|--------------------------|-------------------------|
|-17-----------------------|-------------------------|
|-19-----------------------|-------------------------|
|--------------------------|-------------------------|
   q     Q     H


                            B5
  PM--------------------|      PM|     PM|     PM-----|
  E S S E S S E S S E S S   E  S S  E  S S  E  S S  E  E
|-------------------------|------------------------------|
|-------------------------|------------------------------|
|-------------------------|------------------------------|
|-------------------------|-4-------4-------4------------|
|-------------------------|-2--2-2--2--2-2--2--2-2-------|
|-0-0-0-0-0-0-0-0-0-0-0-0-|-------------------------3--2-|
|
| W                         E  E    E  E    E  E    E  E
|-------------------------|---17---15-14-----------------|
|-------------------------|---19---17-16---17-16---------|
|-------------------------|----------------17-16---16-14-|
|-------------------------|------------------------17-16-|
|-------------------------|------------------------------|
|-------------------------|------------------------------|
                            E  E    E  E    E  E    E  E


    N.C.
    Gtrs I, II
     PM----------------------------------------------|
     E S S E S S E S S E S S   E S S E S S E S S E S S
||---------------------------|-------------------------|
||o--------------------------|-------------------------|
||---------------------------|-------------------------|
||---------------------------|-------------------------|
||o--------------------------|-------------------------|
||---0-0-0-0-0-0-0-0-0-0-0-0-|-0-0-0-0-0-0-0-0-0-0-0-0-|
|
|    Q     Q     H             W
||---------------------------|-------------------------|
||o--------------------------|-------------------------|
||---------------------------|-------------------------|
||--17-----------------------|-------------------------|
||o-19-----------------------|-------------------------|
||---------------------------|-------------------------|
     Q     Q     H


                            B5
  PM--------------------|      PM|     PM|     PM-----|
  E S S E S S E S S E S S   E  S S  E  S S  E  S S  E  E  3x
|-------------------------|-------------------------------||
|-------------------------|------------------------------o||
|-------------------------|-------------------------------||
|-------------------------|-4-------4-------4-------------||
|-------------------------|-2--2-2--2--2-2--2--2-2-------o||
|-0-0-0-0-0-0-0-0-0-0-0-0-|-------------------------3--2--||
|
| W                         E  E    E  E    E  E    E  E  3x
|-------------------------|---17---15-14------------------||
|-------------------------|---19---17-16---17-16---------o||
|-------------------------|----------------17-16---16-14--||
|-------------------------|------------------------17-16--||
|-------------------------|------------------------------o||
|-------------------------|-------------------------------||
                            E  E    E  E    E  E    E  E


   Chorus
    E5           D#5/A#       B5        C5B5
    H.      Q    H.      Q    Q  Q  E E E E
||-------------|------------|---------------|
||o------------|------------|---------------|
||-------------|------------|---------------|
||-------------|-1-------1--|-4--4--4-4-5-4-|
||o-2-------2--|-1-------1--|-2--2--2-2-3-2-|
||--0-------0--|------------|---------------|


           D#5       B5        C5B5           D#5
  +E  E Q  E E E E   Q  Q  E E E E   +E  E Q  E E E E
|------------------|---------------|-------------------||
|------------------|---------------|------------------o||
|------------------|---------------|-------------------||
|-(4)-4-4--8-8-8-8-|-4--4--4-4-5-4-|-(4)-4-4--8-8-8-8--||
|-(2)-2-2--6-6-6-6-|-2--2--2-2-3-2-|-(2)-2-2--6-6-6-6-o||
|------------------|---------------|-------------------||


  D#5
                   2/4
  E E E E E E E E   E E E E
|-----------------|---------|
|-----------------|---------|
|-----------------|---------|
|-8-8-8-8-8-8-8-8-|-8-8-8-8-|
|-6-6-6-6-6-6-6-6-|-6-6-6-6-|
|-----------------|---------|


 Interlude
  N.C.
 4/4
   PM-----------------------------------------------------------|
   E  E E S S S S S S   S  S  S  S    E  E E S S S S S S  S S S S
|----------------------------------|------------------------------|
|----------------------------------|------------------------------|
|----------------------------------|------------------------------|
|----------------------------------|------------------------------|
|----------------------------------|--0--0-0-0-0-0-0-0-0--0-0-0-0-|
|--0--0-0-0-0-0-0-0-0---0--0--0--0-|------------------------------|
|
| Gtr III
|  H.                  +E     S  S    H.                  Q
|----------------------------------|------------------------------|
|----------------------------------|-13------------------12-------|
|----------------------------11-12-|------------------------------|
|-14------------------(14)---------|------------------------------|
|----------------------------------|------------------------------|
|----------------------------------|------------------------------|


   PM--------------------------------------------------------|
   E  E E S S S S S S   S  S  S  S    E E  E S S  S S S S  E E
|----------------------------------|---------------------------|
|----------------------------------|---------------------------|
|----------------------------------|---------------------------|
|----------------------------------|---------------------------|
|--5--5-5-5-5-5-5-5-5---5--5--5--5-|--2-2--2-2-2--2-2-2-2------|
|----------------------------------|-----------------------3-2-|
|
|  H.                  +E     S  S    Q    Q      Q        Q
|----------------------------------|---------------------------|
|----------------------------------|-12------------------------|
|-14------------------(14)---12-14-|------14-----12-------11---|
|----------------------------------|---------------------------|
|----------------------------------|---------------------------|
|----------------------------------|---------------------------|


   PM-----------------------------------------------------------|
   E  E E S S S S S S   S  S  S  S    E  E E S S S S S S  S S S S
|----------------------------------|------------------------------|
|----------------------------------|------------------------------|
|----------------------------------|------------------------------|
|----------------------------------|------------------------------|
|----------------------------------|--0--0-0-0-0-0-0-0-0--0-0-0-0-|
|--0--0-0-0-0-0-0-0-0---0--0--0--0-|------------------------------|
|
|  H.                  +E     S  S    H.                  Q
|----------------------------------|---------------------12-------|
|----------------------------------|-13---------------------------|
|----------------------------11-12-|------------------------------|
|-14------------------(14)---------|------------------------------|
|----------------------------------|------------------------------|
|----------------------------------|------------------------------|


   PM-----------------------------------------------------|
   E E E S S S S S S S S S S    E  E  E  S S  S S  S S  E  E
|----------------------------|-------------------------------|
|----------------------------|-------------------------------|
|----------------------------|-------------------------------|
|----------------------------|-------------------------------|
|--5-5-5-5-5-5-5-5-5-5-5-5-5-|--2--2--2--2-2--2-2--2-2-------|
|----------------------------|--------------------------3--2-|
|
|  W                            E  E  E  E    E    E    E  E
|----------------------------|-------------------------------|
|-15-------------------------|-15-13-12-13---12--------12----|
|----------------------------|--------------------14------14-|
|----------------------------|-------------------------------|
|----------------------------|-------------------------------|
|----------------------------|-------------------------------|


 Guitar Solo
  N.C.
  Gtr I
   H.                  E    E      E  E  E  E    E    E    E    E
|-12------------------12---12---|----12-----------------------------|
|-------------------------------|-15----13-15---12---13--------12---|
|-------------------------------|-------------------------14--------|
|-------------------------------|-----------------------------------|
|-------------------------------|-----------------------------------|
|-------------------------------|-----------------------------------|
|
| Gtr II
|  PM-------------------------------------------------------------|
|  E  E E S S S S S S  S S  S S    E  E  E  S S  S S  S S  S S  S S
|-------------------------------|-----------------------------------|
|-------------------------------|-----------------------------------|
|-------------------------------|-----------------------------------|
|-------------------------------|-----------------------------------|
|-------------------------------|--0--0--0--0-0--0-0--0-0--0-0--0-0-|
|--0--0-0-0-0-0-0-0-0--0-0--0-0-|-----------------------------------|
|
| Gtr III
|  H.                  E    E      E  E  E  E    E    E    E    E
|-12------------------12---12---|----12-----------------------------|
|-------------------------------|-15----13-15---12---13--------12---|
|-12----------------------------|-------------------------14--------|
|-------------------------------|-----------------------------------|
|-------------------------------|-----------------------------------|
|-------------------------------|-----------------------------------|
   W                               W


  Gtrs I, III
   H.                  E    E      E  E  E  E    E    E    E  E
|-------------------------------|-------------------------------|
|-13------------------13---13---|-12-13----12-------------------|
|-------------------------------|-------14------12---14---12-14-|
|-------------------------------|-------------------------------|
|-------------------------------|-------------------------------|
|-------------------------------|-------------------------------|
|
|  PM--------------------------------------------------------|
|  E  E E S S S S S S  S S  S S    E  E  E  S S  S S  S S  E  E
|-------------------------------|-------------------------------|
|-------------------------------|-------------------------------|
|-------------------------------|-------------------------------|
|-------------------------------|-------------------------------|
|--5--5-5-5-5-5-5-5-5--5-5--5-5-|--2--2--2--2-2--2-2--2-2-------|
|-------------------------------|--------------------------3--2-|


   H.                  E    E      E  E  E  E    E    E    E    E
|-------------------------------|-----------------------------------|
|-12------------------12---15---|-15-13-13-12---12---10---10---12---|
|-------------------------------|-----------------------------------|
|-------------------------------|-----------------------------------|
|-------------------------------|-----------------------------------|
|-------------------------------|-----------------------------------|
|
|  PM-------------------------------------------------------------|
|  E  E E S S S S S S  S S  S S    E  E  E  S S  S S  S S  S S  S S
|-------------------------------|-----------------------------------|
|-------------------------------|-----------------------------------|
|-------------------------------|-----------------------------------|
|-------------------------------|-----------------------------------|
|-------------------------------|--0--0--0--0-0--0-0--0-0--0-0--0-0-|
|--0--0-0-0-0-0-0-0-0--0-0--0-0-|-----------------------------------|


   E  E  H              Q          H.                  E  E
|-------------------------------|---------------------------|
|-12-10-10----------------------|---------------------------|
|----------------------12-------|-11------------------12-11-|
|-------------------------------|---------------------------|
|-------------------------------|---------------------------|
|-------------------------------|---------------------------|
|
|  PM----------------------------------------------------|
|  E  E  E S S S S S S  S S S S    E  E E S S S S S S  E  E
|-------------------------------|---------------------------|
|-------------------------------|---------------------------|
|-------------------------------|---------------------------|
|-------------------------------|---------------------------|
|--5--5--5-5-5-5-5-5-5--5-5-5-5-|--2--2-2-2-2-2-2-2-2-------|
|-------------------------------|----------------------3--2-|


 Interlude
  N.C.
  Gtr III
   W                            W
|----------------------------|----------------------------|
|-12-------------------------|-13-------------------------|
|-12-------------------------|-12-------------------------|
|-14-------------------------|----------------------------|
|----------------------------|----------------------------|
|----------------------------|----------------------------|
|  W
|
| Gtrs I, II
|  PM---------------------------------------------------|
|  E E E S S S S S S S S S S    E E E S S S S S S S S S S
|----------------------------|----------------------------|
|----------------------------|----------------------------|
|----------------------------|----------------------------|
|----------------------------|----------------------------|
|----------------------------|--0-0-0-0-0-0-0-0-0-0-0-0-0-|
|--0-0-0-0-0-0-0-0-0-0-0-0-0-|----------------------------|


  Gtrs I, II
   PM-----------------------------------------------|
   E E E S S S S S S S S S S    E E E S S S S S S E E
|----------------------------|------------------------|
|----------------------------|------------------------|
|----------------------------|------------------------|
|----------------------------|------------------------|
|--5-5-5-5-5-5-5-5-5-5-5-5-5-|--2-2-2-2-2-2-2-2-2-----|
|----------------------------|--------------------3-2-|
|
| Gtr III
|  W                            W
|----------------------------|------------------------|
|-10-------------------------|-12---------------------|
|-11-------------------------|-11---------------------|
|----------------------------|------------------------|
|----------------------------|------------------------|
|----------------------------|------------------------|


   PM---------------------------------------------------|
   E E E S S S S S S S S S S    E E E S S S S S S S S S S
|----------------------------|----------------------------|
|----------------------------|----------------------------|
|----------------------------|----------------------------|
|----------------------------|----------------------------|
|----------------------------|--0-0-0-0-0-0-0-0-0-0-0-0-0-|
|--0-0-0-0-0-0-0-0-0-0-0-0-0-|----------------------------|
|
|  W                            W
|----------------------------|----------------------------|
|-12-------------------------|-13-------------------------|
|-12-------------------------|-12-------------------------|
|----------------------------|----------------------------|
|----------------------------|----------------------------|
|----------------------------|----------------------------|


   PM-----------------------------------------------|
   E E E S S S S S S S S S S    E E E S S S S S S E E
|----------------------------|------------------------|
|----------------------------|------------------------|
|----------------------------|------------------------|
|----------------------------|------------------------|
|--5-5-5-5-5-5-5-5-5-5-5-5-5-|--2-2-2-2-2-2-2-2-2-----|
|----------------------------|--------------------3-2-|
|
|  W                            W
|----------------------------|------------------------|
|-10-------------------------|-12---------------------|
|-11-------------------------|-11---------------------|
|----------------------------|------------------------|
|----------------------------|------------------------|
|----------------------------|------------------------|


 Guitar Solo
  N.C.
  Gtr I
   T        T        T        T          T          T           T           T
   |------6-------|  |-------6--------|  |--------6---------|   |---------6----------|
   S  S  S  S  S  S  S  S  S  S  S    S  S  S    S  S  S    S   S   S    S  S  S     S
|-19p12h15-19p12h15-19p12h15-19p12h==15-19p12h==15-19p12h==15--19p=12h==15-19p12h===15-|
|--------------------------------------------------------------------------------------|
|--------------------------------------------------------------------------------------|
|--------------------------------------------------------------------------------------|
|--------------------------------------------------------------------------------------|
|--------------------------------------------------------------------------------------|
|
| Gtr II
|  PM----------------------------------------------------------------------------|
|  E        E        E        S    S     S    S     S    S      S     S     S     S
|--------------------------------------------------------------------------------------|
|--------------------------------------------------------------------------------------|
|--------------------------------------------------------------------------------------|
|--------------------------------------------------------------------------------------|
|--------------------------------------------------------------------------------------|
|--0--------0--------0--------0----0-----0----0-----0----0------0-----0-----0-----0----|
|
| Gtr III
|  H.                                                          +E           S     S
|--------------------------------------------------------------------------------------|
|--------------------------------------------------------------------------------------|
|--------------------------------------------------------------------------11----12----|
|-14----------------------------------------------------------(14)---------------------|
|--------------------------------------------------------------------------------------|
|--------------------------------------------------------------------------------------|


   T        T        T        T          T          T          T          T
   |------6-------|  |-------6--------|  |--------6---------|  |--------6---------|
   S  S  S  S  S  S  S  S  S  S  S    S  S  S    S  S  S    S  S  S    S  S  S    S
|-20p12h15-20p12h15-20p12h15-20p12h==15-20p12h==15-20p12h==15-20p12h==15-20p12h==15-|
|-----------------------------------------------------------------------------------|
|-----------------------------------------------------------------------------------|
|-----------------------------------------------------------------------------------|
|-----------------------------------------------------------------------------------|
|-----------------------------------------------------------------------------------|
|
|  PM--------------------------------------------------------------------------|
|  E        E        E        S    S     S    S     S    S     S    S     S    S
|-----------------------------------------------------------------------------------|
|-----------------------------------------------------------------------------------|
|-----------------------------------------------------------------------------------|
|-----------------------------------------------------------------------------------|
|--0--------0--------0--------0----0-----0----0-----0----0-----0----0-----0----0----|
|-----------------------------------------------------------------------------------|
|
|  H.                                                          Q
|-----------------------------------------------------------------------------------|
|-13----------------------------------------------------------12--------------------|
|-----------------------------------------------------------------------------------|
|-----------------------------------------------------------------------------------|
|-----------------------------------------------------------------------------------|
|-----------------------------------------------------------------------------------|


   T        T        T        T          T          T           T           T
   |------6-------|  |-------6--------|  |--------6---------|   |---------6----------|
   S  S  S  S  S  S  S  S  S  S  S    S  S  S    S  S  S    S   S   S    S  S  S     S
|-17p10h14-17p10h14-17p10h14-17p10h==14-17p10h==14-17p10h==14--17p=10h==14-17p10h===14-|
|--------------------------------------------------------------------------------------|
|--------------------------------------------------------------------------------------|
|--------------------------------------------------------------------------------------|
|--------------------------------------------------------------------------------------|
|--------------------------------------------------------------------------------------|
|
|  PM----------------------------------------------------------------------------|
|  E        E        E        S    S     S    S     S    S      S     S     S     S
|--------------------------------------------------------------------------------------|
|--------------------------------------------------------------------------------------|
|--------------------------------------------------------------------------------------|
|--------------------------------------------------------------------------------------|
|--5--------5--------5--------5----5-----5----5-----5----5------5-----5-----5-----5----|
|--------------------------------------------------------------------------------------|
|
|  H.                                                          +E           S     S
|--------------------------------------------------------------------------------------|
|--------------------------------------------------------------------------------------|
|-14----------------------------------------------------------(14)---------12----14----|
|--------------------------------------------------------------------------------------|
|--------------------------------------------------------------------------------------|
|--------------------------------------------------------------------------------------|


   T        T        T        T          T          T          T        T
   |------6-------|  |-------6--------|  |--------6---------|  |------6-------|
   S  S  S  S  S  S  S  S  S  S  S    S  S  S    S  S  S    S  S  S  S  S  S  S
|-19p10h14-19p10h14-19p10h14-19p10h==14-19p10h==14-19p10h==14-19p10h14-19p10h14-|
|-------------------------------------------------------------------------------|
|-------------------------------------------------------------------------------|
|-------------------------------------------------------------------------------|
|-------------------------------------------------------------------------------|
|-------------------------------------------------------------------------------|
|
|  PM------------------------------------------------------------------|
|  E        E        E        S    S     S    S     S    S     E        E
|-------------------------------------------------------------------------------|
|-------------------------------------------------------------------------------|
|-------------------------------------------------------------------------------|
|-------------------------------------------------------------------------------|
|--2--------2--------2--------2----2-----2----2-----2----2----------------------|
|--------------------------------------------------------------3--------2-------|
|
|  Q                 Q                   Q                     Q
|-------------------------------------------------------------------------------|
|-12----------------------------------------------------------------------------|
|-------------------14------------------12--------------------11----------------|
|-------------------------------------------------------------------------------|
|-------------------------------------------------------------------------------|
|-------------------------------------------------------------------------------|


   T        T        T        T          T          T           T           T
   |------6-------|  |-------6--------|  |--------6---------|   |---------6----------|
   S  S  S  S  S  S  S  S  S  S  S    S  S  S    S  S  S    S   S   S    S  S  S     S
|-19p12h15-19p12h15-19p12h15-19p12h==15-19p12h==15-19p12h==15--19p=12h==15-19p12h===15-|
|--------------------------------------------------------------------------------------|
|--------------------------------------------------------------------------------------|
|--------------------------------------------------------------------------------------|
|--------------------------------------------------------------------------------------|
|--------------------------------------------------------------------------------------|
|
|  PM----------------------------------------------------------------------------|
|  E        E        E        S    S     S    S     S    S      S     S     S     S
|--------------------------------------------------------------------------------------|
|--------------------------------------------------------------------------------------|
|--------------------------------------------------------------------------------------|
|--------------------------------------------------------------------------------------|
|--------------------------------------------------------------------------------------|
|--0--------0--------0--------0----0-----0----0-----0----0------0-----0-----0-----0----|
|
|  H.                                                          +E           S     S
|--------------------------------------------------------------------------------------|
|--------------------------------------------------------------------------------------|
|--------------------------------------------------------------------------11----12----|
|-14----------------------------------------------------------(14)---------------------|
|--------------------------------------------------------------------------------------|
|--------------------------------------------------------------------------------------|


   T        T        T        T          T          T          T          T
   |------6-------|  |-------6--------|  |--------6---------|  |--------6---------|
   S  S  S  S  S  S  S  S  S  S  S    S  S  S    S  S  S    S  S  S    S  S  S    S
|-20p12h15-20p12h15-20p12h15-20p12h==15-20p12h==15-20p12h==15-20p12h==15-20p12h==15-|
|-----------------------------------------------------------------------------------|
|-----------------------------------------------------------------------------------|
|-----------------------------------------------------------------------------------|
|-----------------------------------------------------------------------------------|
|-----------------------------------------------------------------------------------|
|
|  PM--------------------------------------------------------------------------|
|  E        E        E        S    S     S    S     S    S     S    S     S    S
|-----------------------------------------------------------------------------------|
|-----------------------------------------------------------------------------------|
|-----------------------------------------------------------------------------------|
|-----------------------------------------------------------------------------------|
|--0--------0--------0--------0----0-----0----0-----0----0-----0----0-----0----0----|
|-----------------------------------------------------------------------------------|
|
|  H.                                                          Q
|-------------------------------------------------------------12--------------------|
|-13--------------------------------------------------------------------------------|
|-----------------------------------------------------------------------------------|
|-----------------------------------------------------------------------------------|
|-----------------------------------------------------------------------------------|
|-----------------------------------------------------------------------------------|


   T        T        T        T          T          T          T          T
   |------6-------|  |-------6--------|  |--------6---------|  |--------6---------|
   S  S  S  S  S  S  S  S  S  S  S    S  S  S    S  S  S    S  S  S    S  S  S    S
|-22p14h17-22p14h17-22p14h17-22p14h==17-22p14h==17-22p14h==17-22p14h==17-22p14h==17-|
|-----------------------------------------------------------------------------------|
|-----------------------------------------------------------------------------------|
|-----------------------------------------------------------------------------------|
|-----------------------------------------------------------------------------------|
|-----------------------------------------------------------------------------------|
|
|  PM--------------------------------------------------------------------------|
|  E        E        E        S    S     S    S     S    S     S    S     S    S
|-----------------------------------------------------------------------------------|
|-----------------------------------------------------------------------------------|
|-----------------------------------------------------------------------------------|
|-----------------------------------------------------------------------------------|
|--5--------5--------5--------5----5-----5----5-----5----5-----5----5-----5----5----|
|-----------------------------------------------------------------------------------|
|
|  W
|-----------------------------------------------------------------------------------|
|-15--------------------------------------------------------------------------------|
|-----------------------------------------------------------------------------------|
|-----------------------------------------------------------------------------------|
|-----------------------------------------------------------------------------------|
|-----------------------------------------------------------------------------------|


   T        T        T        T          T          T          T        T
   |------6-------|  |-------6--------|  |--------6---------|  |------6-------|
   S  S  S  S  S  S  S  S  S  S  S    S  S  S    S  S  S    S  S  S  S  S  S  S
|-19p14h17-19p14h17-19p14h17-19p14h==17-19p14h==17-19p14h==17-19p14h17-19p14h17-|
|-------------------------------------------------------------------------------|
|-------------------------------------------------------------------------------|
|-------------------------------------------------------------------------------|
|-------------------------------------------------------------------------------|
|-------------------------------------------------------------------------------|
|
|  PM------------------------------------------------------------------|
|  E        E        E        S    S     S    S     S    S     E        E
|-------------------------------------------------------------------------------|
|-------------------------------------------------------------------------------|
|-------------------------------------------------------------------------------|
|-------------------------------------------------------------------------------|
|--2--------2--------2--------2----2-----2----2-----2----2----------------------|
|--------------------------------------------------------------3--------2-------|
|
|  E        E        E        E          E          E          E        E
|-------------------------------------------------------------------------------|
|-15-------13-------12-------13---------12--------------------12----------------|
|--------------------------------------------------14------------------14-------|
|-------------------------------------------------------------------------------|
|-------------------------------------------------------------------------------|
|-------------------------------------------------------------------------------|


   Outro
    N.C.
    Gtrs I, II
     PM---------------------------------------------------------------|
     E  E  E  S S   S  S S S S S S S    E  E  E  S S   S  S S S S S S S
||-----------------------------------|-----------------------------------|
||o----------------------------------|-----------------------------------|
||-----------------------------------|-----------------------------------|
||-----------------------------------|-----------------------------------|
||o----------------------------------|--0--0--0--0-0---0--0-0-0-0-0-0-0--|
||---0--0--0--0-0---0--0-0-0-0-0-0-0-|-----------------------------------|
|
|   Gtr III
|    W                                  W
||-----------------------------------|-----------------------------------|
||o-12-------------------------------|-13--------------------------------|
||--12-------------------------------|-12--------------------------------|
||-----------------------------------|-----------------------------------|
||o----------------------------------|-----------------------------------|
||-----------------------------------|-----------------------------------|
|
|   Gtr V
|    E  E  E  E    +H                   E  E  E  E    +H
||-----------------------------------|-20-19-17--------------------------|
||o----17-20-19---(19)---------------|----------20---(20)----------------|
||--16-------------------------------|-----------------------------------|
||-----------------------------------|-----------------------------------|
||o----------------------------------|-----------------------------------|
||-----------------------------------|-----------------------------------|


   PM------------------------------------------------------------|
   E  E  E  S S   S  S S S  S S  S S    E E  E  S S  S S  S S  E  E
|------------------------------------|-------------------------------||
|------------------------------------|------------------------------o||
|------------------------------------|-------------------------------||
|------------------------------------|-------------------------------||
|--5--5--5--5-5---5--5-5-5--5-5--5-5-|--2-2--2--2-2--2-2--2-2-------o||
|------------------------------------|-------------------------3--2--||
|
|  W                                    W
|------------------------------------|-------------------------------||
|-10---------------------------------|-12---------------------------o||
|-11---------------------------------|-11----------------------------||
|------------------------------------|-------------------------------||
|------------------------------------|------------------------------o||
|------------------------------------|-------------------------------||
|
|  E  E  E  E    +Q         E    E      Q    E  E    E    E    E  E
|-17---------------------------------|-------------------------------||
|----19------------------------------|------------------------------o||
|-------19-----------------16---17---|-19---17-16---17---16----------||
|----------19---(19)-----------------|------------------------17-16--||
|------------------------------------|------------------------------o||
|------------------------------------|-------------------------------||


  H.=H                                        Q=60
  E5                                          E5
   W                       W                   W
|-----------------------|-------------------|--------*|
|-----------------------|-------------------|--------*|
|-----------------------|-------------------|--------*|
|-----------------------|-------------------|--------*|
|--2--------------------|-------------------|--------*|
|--0--------------------|-------------------|--------*|
|
|              |--3--|     |--3---|
|  E  E  E  E  Q  Q  Q     Q   Q  Q  Q  Q      W
|-19-19-19-19-19-15-----|-------------------|--------*|
|-20-20-20-20-20-17-17--|-------------------|--------*|
|-------------------16--|-16--12------------|--------*|
|-----------------------|-17--14-14--9--5---|--2-----*|
|-----------------------|--------14-10--7---|--2-----*|
|--0--------------------|-(0)---------------|-(0)----*|
   W                      +W                  +W



Duration Legend
---------------
W - whole; H - half; Q - quarter; E - 8th; S - 16th; T - 32nd; X - 64th; a - acciaccatura
+ - note tied to previous; . - note dotted; .. - note double dotted
Uncapitalized letters represent notes that are staccato (1/2 duration)
Irregular groupings are notated above the duration line
Duration letters will always appear directly above the note/fret number it represents the
duration for.  Duration letters with no fret number below them represent rests.  Multi-
bar rests are notated in the form Wxn, where n is the number of bars to rest for.  Low
melody durations appear below the staff

Tablature Legend
----------------
 h   - hammer-on
 p   - pull-off
 b   - bend
 pb  - pre-bend
 r   - bend release (if no number after the r, then release immediately)
 /\  - slide into or out of (from/to "nowhere")
 s   - legato slide
 S   - shift slide
 - natural harmonic
[n]  - artificial harmonic
n(n) - tapped harmonic
 ~   - vibrato
 tr  - trill
 T   - tap
 TP  - trem. picking
 PM  - palm muting
\n/  - tremolo bar dip; n = amount to dip
 \n  - tremolo bar down
 n/  - tremolo bar up
/n\  - tremolo bar inverted dip
 =   - hold bend; also acts as connecting device for hammers/pulls
 <> - volume swell (louder/softer)
 x   - on rhythm slash represents muted slash
 o   - on rhythm slash represents single note slash

Misc Legend
-----------
 |  - bar
||  - double bar
||o - repeat start
o|| - repeat end
*|  - double bar (ending)
 :  - bar (freetime)
 $  - Segno
 &  - Coda
Tempo markers -  = BPM(8/16=s8/s16), where s8 = swing 8ths, s16 = swing 16ths

Related for To Mega Therion tab
×
Best way to learn
"To Mega Therion"