Guitaretab - guitar tabs
Song name
# A B C D E F G H I J K L M N O P Q R S T U V W X Y Z

Therion - Seven Secrets Of The Seven Sphinx tab

 旼컴컴컴컴컴컫컴컴컴컴컴컴컴컴컴컴컴컴컴컴컴컴쩡컴컴컴컴컴컴컴컴컴컴컴컴컴커
  BAND:       THERION                          http://www.element.hr/    
  ALBUM:      DEGGIAL (NUCLEAR BLAST, 2000)           ~megatherion       
  SONG NAME:  SECRET OF THE SEVEN SPHINX       pandemonius@element.hr    
 쳐컴컴컴컴컴컨컴쩡컴컴컴컴컴컴컴컴컴컴컴컴컴컴좌컴컴컴컴컴컴컴컴컴컴컴컴컴캑
  LEGEND:        version 1.1 update 01/25/'00  TUNING: Cb (1 step down) 
  * = palm mute                               읕컴컴컴컴컴컴컴컴컴컴컴컴컴
  / = slide     
 읕컴컴컴컴컴컴컴


 This is the TAB for the LEAD GUITAR only! The Rythm guitar uses riffs
  which are constantly palm-muted and very simple...
   please send updated or corrections to me, at PANDEMONIUS@ELEMENT.HR
    this tab is NOT perfect...


RIFF 1
|-------------------|
|-------------------|
|-------------------|
|-------------------|
|--5-5-5-5-6-5-3-5--|
|--3-3-3-3-4-3-1-3--|
   * *   *

RIFF 2
|-------------------|
|-------------------|
|-------------------|
|--5-5-5-5-6-5-3-5--|
|--3-3-3-3-4-3-1-3--|
|-------------------|
   * *   *

RIFF 3
|---------------------------------------------------|
|---------------------------------------------------|
|---------------------------------------------------|
|--------------------------------------15-14-13-12--|
|--13-13-13-13-13-13-13-13-13-13-13-13--------------|
|---------------------------------------------------|

|---------------------------------------------------|
|---------------------------------------------------|
|---------------------------------------------------|
|--------------------------------------15-14-13-12--|
|--12-12-12-12-12-12-12-12-12-12-12-12--------------|
|---------------------------------------------------|

CHORD 1
|--0--|
|--3--|
|--4--|
|--3--|
|-----|
|-----|
[ Tab from: http://www.guitaretab.com/t/therion/44739.html ]
OUTRO RIFF
|-----------------------------------------------------------|
|-----------------------------------------------------------|
|-----------------------------------------------------------|
|--10-10----------------------------10-10-----------4/3/4---|
|---7--7---7-7-7-7-4-4-4-4-3-3-3-3---7--7-7-7-7-7---2/1/2---|
|-----------------------------------------------------------|
           * * * * * * * * * * * *        * * * *
           /\
           not very sure about this

RIFF 1 x8
RIFF 2 x4
RIFF 1 x4
RIFF 3 x4
CHORD1 x4
RIFF 3 x4
CHORD1 x4
RIFF 1 x8
RIFF 2 x4
RIFF 1 x4
RIFF 3 x4
CHORD1 x4
RIFF 3 x4
CHORD1 x4
OUTRO  x4

I'm not sure if there is another riff with CHORD 1... I think
it's something like RIFF3, but played an octave lower ... ???

-----------------------------------------------------------------

Therion "Seven Secrets of the Sphinx"
Deggial
Tabbed by: Drew Schinzel 
2/26/00

C# tuning

I didn't note palm-muting, but it's pretty obvious where they use it.


 Riff 1                                               
|---------------------------|
|---------------------------|
|---------------------------|
|--5-5--5--5--6--5--3--5----|
|--5-5--5--5--6--5--3--5----|
|--3-3--3--3--4--3--1--3----|
                                                     
  riff 2                                                              
|----------------------------------------------------|
|-11-9-88------------------11-9-88-------------------|
|---------88888888-7-888-----------77777777-5-777----|
|----------------------------------------------------|
|----------------------------------------------------|
|----------------------------------------------------|
                                                                    
 riff 3  This is just how I play it, it's hard to hear it            
|---------------------------------------------|
|---------------------------------------------|
|-5--5--55-6-66---6-5--5--5--55--8-88-6-------|
|---------------8-----------------------8-----|
|---------------------------------------------|
|---------------------------------------------|
                                                                    
 ending riff                                                       
|------------------------------------------|
|------------------------------------------|
|------------------------------------------|
|------------------------------------------|
|----------------3333------------1-0-1-----|
|-3333-3333-3333------3333-3333------------|
       
  A second guitar plays this at the beginnging of the ending riff                                                            
|------------|
|-8-8-8-8----|
|-7-7-7-7----|
|------------|
|------------|
|------------|
Related for Seven Secrets Of The Seven Sphinx tab