Guitaretab - guitar tabs
Song name
# A B C D E F G H I J K L M N O P Q R S T U V W X Y Z

Therion - Clavicula Nox tab

#----------------------------------PLEASE NOTE---------------------------------#
#This file is the author's own work and represents their interpretation of the #
#song. You may only use this file for private study, scholarship, or research. #
#------------------------------------------------------------------------------#
        
          Therion - "Clavicula Nox" (standard tuning)

tab by Alief  

Intro - played 2 times 
|---------------------------------------------------------------------------------|
|---------------------------------------------------------------------------------|
|-----------------------0---------0-------0---------0-------2---------4---4h5p4---|
|-----4---------4-----2-----2---2-------2-----2---2-------4-----4---4-------------|
|---2-----2---2-----3---------3-------1---------1-------2---------2---------------|
|-0---------0---------------------------------------------------------------------|

0'39"
|---------------------------------|---------0---------------0-------|
|---------0---------------0-------|-------1---1-----------1---1-----|
|-------0---0-----------0---0-----|-----0-------0-------0-------0---|
|-----4-------4-------4-------4---|---2-----------2---2-----------2-|
|---2-----------2---2-----------2-|-3---------------3---------------|
|-0---------------0---------------|---------------------------------|

|---------------------------------|---------2---------------2-------|
|-------0-0-------------0-0-------|-------4---4-----------4---4-----|
|-----0-----0---------0-----0-----|-----4-------4-------4-------4---|
|---2---------2-----2---------2---|---4-----------4---4-----------4-|
|-1-------------1-1-------------1-|-2---------------2---------------|
|---------------------------------|---------------------------------|

Verse , at 0'58"
|-0-------------------------------|-0-------------------------------|
|-0-------------------------------|-1-------------------------------|
|-0-------------------------------|-0-------------------------------|
|-2-------------------------------|-2-------------------------------|
|-2-------------------------------|-3-------------------------------|
|-0-------------------------------|---------------------------------|

|-0-------------------------------|-7-------------------------------|
|-0-------------------------------|-7-------------------------------|
|-0-------------------------------|-8-------------------------------|
|-2-------------------------------|-9-------------------------------|
|-1-------------------------------|-9-------------------------------|
|---------------------------------|-7-------------------------------|

1'56" - played 4 times 
|-0-0-0-----------0-0-0-----------|
|-0-0-0-----------0-0-0-----------|
|-0-0-0-----------0-0-0---4---3---|
|-2-2-2-----------2-2-2-----------|
|-2-2-2---2---1---2-2-2---2---1---|
|-0-0-0-----------0-0-0-----------|

2'14"
|---5-7-5-----|-----------7---------6-----------------|
|-8-------8-7-|-8-------------------------------------|
|-------------|---------------------------------------|
|-------------|---------------------------------------|
|-------------|---------------------------------------|
|-------------|---------------------------------------|
|                                                     |
|-------------|---------------------------------------|
|-------------|---------------------------------------|
|-------------|-----------4---------3-----------------|
|-2-4-5-4-2-1-|-2-------------------------------------|
|-------------|---------------------------------------|
|-------------|---------------------------------------|
|                                                     |
|-------------|---------------------------------------|
|-------------|---------------------------------------|
|-------------|---------------------------------------|
|-------------|---------------------------------------|
|-------------|-2-2-2-2---2-2-2-2---2-2-2-2---5-5-4-4-|
|-------------|-0-0-0-0---0-0-0-0---0-0-0-0---3-3-2-2-|

5'08"
|-0-----0-0-0------|-2-----2-2-2------|-0-----0-0-0-----|
|-0-----0-0-0------|-2-----2-2-2------|-0-----0-0-0-----|
|-0-----0-0-0------|-2-----2-2-2------|-0-----0-0-0-----|
|-2-----2-2-2------|-4-----4-4-4------|-2-----2-2-2-----|
|-2-----2-2-2------|-4-----4-4-4------|-2-----2-2-2-----|
|-0-----0-0-0------|-2-----2-2-2------|-0-----0-0-0-----|

|-2-----2-------2-------2-|
|-4-------4-------4-------|
|-4---------4-------4-----|
|-4-----------4-------4---|
|-2-----------------------|
|-------------------------|
[ Tab from: http://www.guitaretab.com/t/therion/46282.html ]
This is played with the part above : 
|-----3-----5-----7-----5-----3---|-----2-----3-----5-----3-----2---|
|-5-5---5-5---5-5---5-5---5-5---5-|-3-3---3-3---3-3---3-3---3-3---3-|
|---------------------------------|---------------------------------|
|---------------------------------|---------------------------------|
|---------------------------------|---------------------------------|
|---------------------------------|---------------------------------|

|-----0-----2-----3-----2-----0---|-----------0-----2-----0---------|
|-1-1---1-1---1-1---1-1---1-1---1-|-0-0-4-0-0---0-0---0-0---0-0-4-0-|
|---------------------------------|---------------------------------|
|---------------------------------|---------------------------------|
|---------------------------------|---------------------------------|
|---------------------------------|---------------------------------|

5'46" - here are the main chords :
|-0----------|-2----------|-0---------|-5----------|
|-0----------|-2----------|-0---------|-5----------|
|-0----------|-2----------|-0---------|-5----------|
|-2----------|-4----------|-2---------|-7----------|
|-2----------|-4----------|-2---------|-7----------|
|-0----------|-2----------|-0---------|-5----------|

6'04" - clean solo
|--------7----------------------|--------7----------7------|
|-7h8h10---10-8-7---5-5---3-5---|-7h8h10---10-8-7-----10---|
|-------------------------------|--------------------------|
|-------------------------------|--------------------------|
|-------------------------------|--------------------------|
|-------------------------------|--------------------------|

|-10h12-10---8-8----------|--------7--------------------|
|------------------8-10---|-7h8h10---10-8-8\7-7---5-4---|
|-------------------------|-----------------------------|
|-------------------------|-----------------------------|
|-------------------------|-----------------------------|
|-------------------------|-----------------------------|

|--------7------12---10h12-15---12-10---|
|-7h8h10---10-8-------------------------|
|---------------------------------------|
|---------------------------------------|
|---------------------------------------|
|---------------------------------------|

|-8-7-----------------7-------------------------------|
|-----8-7-8-10-7-8-10---10-8-7-8-8-8---8-8/10-10-10---|
|-----------------------------------------------------|
|-----------------------------------------------------|
|-----------------------------------------------------|
|-----------------------------------------------------|

|-15\14-14-14-14\12-12-12-12\11-11-|
|----------------------------------|
|----------------------------------|
|----------------------------------|
|----------------------------------|
|----------------------------------|

|--------------------|
|-7-8-10-----7-8-----|
|--------7-9-----9---|
|--------------------|
|--------------------|
|--------------------| 

6'54" - this is not the guitar , but Im not so good with chords , so...
|-------------------------|-------------------------|-------------------------|
|-------------------------|-------------------------|-------------------------|
|-------------------------|-------------------------|-------------------------|
|-4-----0-----2-----5-----|-7-----5-----4-----2-----|-4-----------------------|
|-------------------------|-------------------------|-------------------------|
|-------------------------|-------------------------|-------------------------|

|-------------------------|-------------------------|-------------------------|
|-------------------------|-------------------------|-------------------------|
|-------------------------|-4-----------------------|-------------------------|
|-------------------------|-------7-5---7-5-4-----2-|-4-----------------------|
|-5---4-2---4-5-----2-----|-------------------------|-------------------------|
|-------------------------|-------------------------|-------------------------|

7'31" 
|-10p9-7-----------|-10p9-7-----------|-10p9-7-----------|-10p9-7-----------|
|------------------|------------------|----------7h8-7---|----------7h8-7---|
|----------6h7-6---|----------6h7-6---|--------9-------9-|--------9-------9-|
|--------9-------9-|--------9-------9-|------------------|------------------|
|------------------|------------------|------------------|------------------|
|------------------|------------------|------------------|------------------|

|-10p9-7-----------|-10p9-7-----------|-10p9-7------------|-10p9-7------------|
|------------------|------------------|--------7-8h10-8-7-|--------7-8h10-8-7-|
|--------6-7h9-7-6-|--------6-7h9-7-6-|-------------------|-------------------|
|------------------|------------------|-------------------|-------------------|
|------------------|------------------|-------------------|-------------------|
|------------------|------------------|-------------------|-------------------|.
Related for Clavicula Nox tab