Guitaretab - guitar tabs
Song name
# A B C D E F G H I J K L M N O P Q R S T U V W X Y Z

Therion - Son Of The Sun tab

Therion- Son of the Sun 
....adrian_asm-93@hotmail.com


INTRO (x2)

Guitar I
--------------------------------------------------------------------------------
------------------------------------------------------11/13-11------------------
13-12-13-12-10-----13-12-13-12-10-10-10-13-12-13-12-10--------13-12-13-12-10--10
--------------13-13---------------------------------------------------------13--
--------------------------------------------------------------------------------
--------------------------------------------------------------------------------

-------------------------------------------------------------------------------|
-------------------------------------------------------------------------------|
13-12-13-12-10-10-10--13-12-13-12-10--10--13-12-13-12-10--10-------------------|
------------------------------------13------------------13--11-13-10-11--10----|
-----------------------------------------------------------------------13--11--|
-----------------------------------------------------------------------------13|

Guitar II (x2)                                                               2nd
|--------------------------------------------------------------------------|---|
|--------------------------------------------------------------------------|---|
|---------55555555-66666666--------------------------------------6666-8888-|---|
|33333333-55555555-66666666-6666-8888-33333333-66666666-88888888-6666-8888-|-3-|
|33333333-33333333-44444444-6666-8888-33333333-66666666-88888888-4444-6666-|-3-|
|11111111-------------------4444-6666-11111111-44444444-66666666-----------|-1-|

VERSE 1
Guitar III (x4)    1st, 3rd, 4th                        2nd

|----2-----3p2----------------------||----2-----3p2---------------2----|
|---5-----5---5-------3-----3-----5-||---5-----5---5-------3-----3-3---|
|--4-----4-----4-----4-----4-----4--||--4-----4-----4-----4-----4---4--|
|-2-----2-------2---4-----4-----4---||-2-----2-------2---4-----4-----4-|
|------------------2-----2-----2----||------------------2-----2--------|
|-----------------------------------||---------------------------------|
Guitar I  (x2)
|-----------------------------------------------------------------------|
|-----------------------------------------------------------------------|
|-----------------------------------------------------------------------|
|-----------------------------------------------------------------------|
|------------------------------3-------2-----2----------------2---------|
|------------------3-----3------------------------------3---------------|
Guitar II (enter after the end of 2nd time of guitar III)
|-----------------------------------------------------------------------|
|-----------------------------------------------------------------------|
|------------------------------6-66------------------------------5-55-6-|
|-3--3--3-3--3--3-6--6--6-6-66-6-66-3--3--3-3--3--3-6--6--6-6-66-5-55-6-|
|-3--3--3-3--3--3-6--6--6-6-66-4-44-3--3--3-3--3-3-6--6--6-6-66-3-33-4-|
|-11111111111111114444444-4-44------11111111111111114444444-4-44--------|
   .. .. . .. .. . .. ..             .. .. .. . .. . .. ..
CHOURS
A
|------------------------------------------------------------------------------|
|------------------------------------------------------------------------------|
|-66666---------888---66666----------------66666---------888----666----888-----|
|-66666---666---888---66666---33333---6666-66666---666---888----666----888-----|
|-44444...666---666...44444...33333---6666-44444...666---666...-444...-666...--|
|---------444...--------------11111...4444---------444...----------------------|

B
|-----------------------------|
|-----------------------------|
|-----------------------------|
|-----------------------------|
|-3----3----3----6----3-------|
|-1000010000100004000010000---|
   .... .... .... .... ....

VERSE 2 (x2)
[ Tab from: http://www.guitaretab.com/t/therion/67109.html ]
|--------------------------------------------------------------------------|
|--------------------------------------------------------------------------|
|----------------------------4444-6666-------------------------------------|
|-66666666-99999999-22222222-4444-6666-66666666-99999999-44444444-22222222-|
|-66666666-99999999-22222222-2222-4444-66666666-99999999-44444444-22222222-|
|-44444444-77777777-00000000-----------44444444-77777777-22222222-00000000-|

Repeat INTRO (x1)
Repeat VERSE 1
Repeat CHOURS (A)

|--------------|
|--------------|
|--------------|
|--------------|
|-3----3----3--|
|-10000100001--|
   .... ....
Repeat VERSE 2 (x2)

RIFF (x4)
A
|----------------------------------|
|----------------------------------|
|----------------------------------|
|----------------------------------|
|-----------------------------2*~--|
|-0-1-0-3-0-0-3-0-0-4-0-0-1-0------|

B (x4)
|----------------------------------|
|----------------------------------|
|----------------------------------|
|----------------------------------|
|---3---5-----5-----6-----3---2-2--|
|-0-1-0-3-0-0-3-0-0-4-0-0-1-0-0-0--|
  .   .   . .   . .   . .   .
SOLO

Guitar I
|-----------------------------------------------------------------------
|-----------------------------------------------------------------------
|-/10-12-13-12-10--10-10~~-/13-12-10--10-10-12-13-13/17-13-12-10-10/13~-
|----------------13-----------------13----------------------------------
|-----------------------------------------------------------------------
|-----------------------------------------------------------------------

---------------------||---------------------------------------------
-11-11h13-13h14-13~--||---------------------------------------------
---------------------||-/10-12-13-12-10--10------10---10--------10--
---------------------||----------------13--10--13-13---13-11-13----
---------------------||---------------------------------------------
---------------------||---------------------------------------------

----------------------------------------|
------------------13-13/16-13~~---------|
-10-12-13-13/15-13----------------------|
----------------------------------------|
----------------------------------------|
----------------------------------------|

Guitar III
|------------------------------------------------------------13-13h15-15h16-15~|
|-/9-11-13-11-9-9~~-/13-11-9--9-9-11-13-13/16-13-11-9-9/13~-------------------|
|--------------12------------12------------------------------------------------|
|------------------------------------------------------------------------------|
|------------------------------------------------------------------------------|
|------------------------------------------------------------------------------|

|---------------------------------------------------------13/16-15~~--|
|-/9-11-13-11-9--9------9---9--------9-9-11-13-13/16-13-11------------|
|--------------12-10--12-12--12-10-12---------------------------------|
|---------------------------------------------------------------------|
|---------------------------------------------------------------------|
|---------------------------------------------------------------------|
Guitar II (under solo) (x4)          1st,3rd         2nd
|----------------------------------||------||-----------------|
|----------------------------------||------||-----------------|
|-6666----8888----101010101010-----||------||-----------------|
|-6666----8888----101010101010-----||-6666-||-101010101010----|
|-4444...-6666...--8-8-8-8-8-8...--||-6666-||-101010101010----|
|----------------------------------||-4444-||--8-8-8-8-8-8...-|
4th time
|-------------------------------------------|
|-------------------------------------------|
|-6666----8888------------------------------|
|-6666----8888------------------------------|
|-4444...-6666...-3----3----3----6----3-----|
|-----------------1000010000100004000010000-|
                   .... .... .... .... ....
Repeat VERSE 2 (x2)
Repeat INTRO   (x2)
Related for Son Of The Sun tab