Song name
# A B C D E F G H I J K L M N O P Q R S T U V W X Y Z

Therion - Symphony Of The Dead tab

C# tuning - C#,F#,B,E,G#,C#

/    - slide
~    - vibrato / let ring
pm   - palm muting
x    - mute
^    - hammer on/pull off
4~~x - strike, let ring, mute


C#|----------------|----------------|----------------|----------------|
G#|----------------|----------------|----------------|----------------|
E |----------------|----------------|----------------|----------------|
B |----------------|----------------|----------------|----------------|
F#|----------------|----------------|----------------|----------------|
C#|----------------|----------------|----------------|----------------|
   both guitars
C#|----------------|----------------|----------------|----------------|
G#|----------------|----------------|----------------|5-555-5-555-55~-|
E |----------------|----------------|----------------|----------------|
B |----------------|----------------|----------------|----------------|
F#|2-222-2-222-2222|2-222-2-222-2222|7-777-7-777-77~-|----------------|
C#|0-000-0-000-0000|0-000-0-000-0000|----------------|----------------|
pm . ... . ... .... . ... . ... ....


00:07

C#|----------------|----------------|----------------|----------------|
G#|----------------|----------------|----------------|----------------|
E |----------------|----------------|----------------|----------------|   
B |2-----2-2-------|2-----2-2-------|2-----2-2-2-2-2-|2-----2-2-------| 2x
F#|2-----2-2-------|2-----2-2-------|2-----2-2-2-2-2-|2-----2-2-------|
C#|0-000-0-0-------|0-000-0-0-------|0-000-0-0-0-0-0-|0-000-0-0-------|
  |. ... . .        . ... . .        . ... . . . . .  . ... . .       |  
  |2nd guitar                                                         | 
C#|----------------|----------------|----------------|----------------|
G#|----------------|----------------|----------------|----------------|
E |----------------|----------------|----------------|----------------|
B |5-5-5-5-5-5-5-5-|4-4-4-4-4-4-5-4-|2-2-2-2-2-2-2-2-|2-2-2-2-2-2-2-2/|
F#|----------------|----------------|----------------|----------------|
C#|----------------|----------------|----------------|----------------|


00:22
                                                                     
C#|----------------|----------------|----------------|----------------|
G#|----------------|----------------|----------------|----------------|
E |----------------|----------------|----------------|----------------|
B |2-----2-2-------|2-----2-2-------|2-----2-2-------|2-----2-2-------|
F#|2-----2-2-------|2-----2-2-------|2-----2-2-------|2-----2-2-------|
C#|0-000-0-0---000-|0-000-0-0---000-|0-000-0-0---000-|0-000-0-0---000-|
  |. ... . . . ...  . ... . . . ...  . ... . . . ...  . ... . . . ... | 
  |2nd guitar                                                         |
C#|----------------|----------------|----------------|----------------|
G#|----------------|----------------|----------------|----------------|
E |4*--------------|2---------------|0---------------|0---------------|
B |5---------------|4---------------|2---------------|2---------------|
F#|5---------------|4---------------|2---------------|2---------------|
C#|----------------|----------------|----------------|----------------|
*not quite sure(3)


C#|----------------|----------------|----------------|----------------|
G#|----------------|----------------|----------------|----------------|
E |----------------|----------------|----------------|----------------|
B |2-----2-2-------|2-----2-2-------|2-----2-2-------|------2-2-------|
F#|2-----2-2-------|2-----2-2-------|2-----2-2-------|------2-2-------|
C#|0-000-0-0---000-|0-000-0-0---000-|0-000-0-0---0-0-|0-0-0-0-0---000-|
  |. ... . .   ...  . ... . .   ...  . ... . .   . .  . . . . .   ... | 
  |2nd guitar                                                         |
C#|----------------|----------------|----------------|----------------|
G#|----------------|----------------|----------------|----------------|
E |4*--------------|2---------------|0---------------|0---------------|
B |5---------------|4---------------|2---------------|2---------------|
F#|5---------------|4---------------|2---------------|2---------------|
C#|----------------|----------------|----------------|----------------|


00:37

C#|----------------|----------------|----------------|----------------|
G#|----------------|----------------|----------------|----------------|
E |----------------|----------------|----------------|----------------|
B |----------------|----------------|----------------|----------------|
F#|5~------5~--5~--|--4~x-4~x-4-4-4-|--2~x-2~-2~--2~-|--2~x-2~--2~--2~|
C#|3~--3-3-3~--3~--|2-2~x-2~x-2-2-2-|0-0~x-0~-0---0~-|0-0~x-0~--0~--0~|
       . .          .   .   .        .   .            .   .        

C#|----------------|----------------|----------------|----------------|
G#|----------------|----------------|----------------|----------------|
E |----------------|----------------|----------------|----------------|
B |----------------|----------------|----------------|----------------|
F#|5~------5~--5~--|--4~x-4~x-4-4-4-|--2~x-2~-2~--2~-|--2~x-2~--2~2~2~|
C#|3~--3-3-3~--3~--|2-2~x-2~x-2-2-2-|0-0~x-0~-0---0~-|0-0~x-0~--0~0~0~|
       . .          .   .   .        .   .            .   .

00:51

C#|----------------|----------------|----------------|----------------|
G#|----------------|----------------|----------------|----------------|
E |----------------|----------------|----------------|----------------|
B |5---------------|4---------------|2---------------|2-4-4-5-5-4-4-2-|
F#|5---------------|4---------------|2---------------|----------------|
C#|3---------------|2---------------|0---------------|----------------|


C#|----------------|----------------|----------------|----------------|
G#|----------------|----------------|----------------|----------------|
E |----------------|----------------|----------------|----------------|
B |5---------------|4---------------|2---------------|2~--------------|
F#|5---------------|4---------------|2---------------|2~--------------|
C#|3---------------|2---------------|0---------------|0~--------------|


solo at 01:35
                          fast
C#|-----------------|-----------------|-----------------|-----------------|
G#|-7-8-5-7-3-5-----|---------------3-|-3-5-------------|-----------------|
E |-------------6-7-|-4-6-3-4-4-6-6---|-----6-7-4-6-3-4-|-4-6-6-7-4-3-4-6-|
B |-----------------|-----------------|-----------------|-----------------|
F#|-----------------|-----------------|-----------------|-----------------|
C#|-----------------|-----------------|-----------------|-----------------|
  |2nd guitar                                                             |
C#|-----------------|-----------------|-----------------|-----------------|
G#|-----------------|-----------------|-----------------|-----------------|
E |4-------4---4----|4---------4----4-|-----4---------4-|4--------4~------|
B |4-------4---4----|4---------4----4-|-----4---------4-|4--------4~------|
F#|2-------2---2----|2---------2----2-|-----2---------2-|2--------2~------|
C#|-----------------|-----------------|-----------------|-----------------|



C#|---------|---------|---------|---------|---------|---------|---------|---------|
G#|10-8-7---|-7-8-7~--|-7-8-7~--|-7-8-7~~-|---------|---------|---------|---------|
E |-------9-|-------9-|-------9-|---------|-7~~---6-|-6~~-----|---6-6-7-|-7~---9~-|
B |---------|---------|---------|---------|---------|------9-9~---------|---------|
F#|---------|---------|---------|---------|---------|---------|---------|---------|
C#|---------|---------|---------|---------|---------|---------|---------|---------|
  |2nd guitar                                                                     | 
C#|---------|---------|---------|---------|---------|---------|---------|---------|
G#|---------|---------|---------|---------|---------|---------|---------|---------|
E |---------|---------|---------|---------|---------|---------|---------|---------|
B |4---4-4--|-4---4-4-|--4----4-|4----4~-/|2---2-2--|-2---2-2-|--2----2-|2----2~--|
F#|4---4-4--|-4---4-4-|--4----4-|4----4~-/|2---2-2--|-2---2-2-|--2----2-|2----2~--|
C#|2---2-2--|-2---2-2-|--2----2-|2----2~-/|0---0-0--|-0---0-0-|--0----0-|0----0~--|
  (same rythm as the first part)



C#|---------|---------|---------|--7-10-9-|
G#|-8-7-----|------7-8~---7-8-7-|10-------|
E |-----9-7-|9~~------|---------|---------|
B |---------|---------|---------|---------|
F#|---------|---------|---------|---------|
C#|---------|---------|---------|---------|
  |2nd guitar                             |
C#|---------|---------|---------|---------|
G#|---------|---------|---------|---------|
E |4---4-4--|-4--4-4~~x-4~~x-4~~x-4~~x--4-|
B |4---4-4--|-4--4-4~~x-4~~x-4~~x-4~~x--4-|
F#|2---2-2--|-2--2-2~~x-2~~x-2~~x-2~~x--2-|
C#|---------|---------|---------|---------|
                      .    .    .    .

    
C#|-----------------|-----------------|-----------------|-----------------|
G#|-7-8-5-7-3-5-----|---------------3-|-3-5-------------|-----------------|
E |-------------6-7-|-4-6-3-4-4-6-6---|-----6-7-4-6-3-4-|-4-6-6-7-4-3-4-6-|
B |-----------------|-----------------|-----------------|-----------------|
F#|-----------------|-----------------|-----------------|-----------------|
C#|-----------------|-----------------|-----------------|-----------------|
  |2nd guitar                                                             |
C#|-----------------|-----------------|-----------------|-----------------|
G#|-7-8-5-7-3-5-----|---------------3-|-3-5-------------|-----------------|
E |-------------6-7-|-4-6-3-4-4-6-6---|-----6-7-4-6-3-4-|-4-6-6-7-4-3-4-6-|
B |-----------------|-----------------|-----------------|-----------------|
F#|-----------------|-----------------|-----------------|-----------------|
C#|-----------------|-----------------|-----------------|-----------------|
  |3rd guitar                                                             |
C#|-----------------|-----------------|-----------------|-----------------|
G#|-----------------|-----------------|-----------------|-----------------|
E |4-------4---4----|4---------4----4-|-----4---------4-|4--------4~------|
B |4-------4---4----|4---------4----4-|-----4---------4-|4--------4~------|
F#|2-------2---2----|2---------2----2-|-----2---------2-|2--------2~------|
C#|-----------------|-----------------|-----------------|-----------------|



C#|---------|---------|---------|---------|---------|---------|---------|---------|
G#|10-8-7---|-7-8-7~--|-7-8-7~--|-7-8-7~~-|---------|---------|---------|---------|
E |-------9-|-------9-|-------9-|---------|-7~~---6-|6~~------|---6-6-7-|-7~---9~-|
B |---------|---------|---------|---------|---------|------9-9~---------|---------|
F#|---------|---------|---------|---------|---------|---------|---------|---------|
C#|---------|---------|---------|---------|---------|---------|---------|---------|
  |2nd guitar                                                                     |
C#|-9-7-5---|-5-7-5~--|-5-7-5~--|-5-7-5~~-|---------|---------|---------|---------|
G#|-------8-|-------8-|-------8-|---------|-8~~---7-|7~~------|---7-7-8-|-8~--10~-|
E |---------|---------|---------|---------|---------|------9-9~---------|---------|
B |---------|---------|---------|---------|---------|---------|---------|---------|
F#|---------|---------|---------|---------|---------|---------|---------|---------|
C#|---------|---------|---------|---------|---------|---------|---------|---------|
  |3rd guitar                                                                     | 
C#|---------|---------|---------|---------|---------|---------|---------|---------|
G#|---------|---------|---------|---------|---------|---------|---------|---------|
E |---------|---------|---------|---------|---------|---------|---------|---------|
B |4---4-4--|-4---4-4-|--4----4-|4----4~-/|2---2-2--|-2---2-2-|--2----2-|2----2~--|
F#|4---4-4--|-4---4-4-|--4----4-|4----4~-/|2---2-2--|-2---2-2-|--2----2-|2----2~--|
C#|2---2-2--|-2---2-2-|--2----2-|2----2~-/|0---0-0--|-0---0-0-|--0----0-|0----0~--|



C#|---------|---------|---------|---------|
G#|-8-7-----|------7-8~--7------|-7~~~----|
E |-----9-7-|-9~~-----|-----9-7-|---------|
B |---------|---------|---------|---------|
F#|---------|---------|---------|---------|
C#|---------|---------|---------|---------|
  |2nd guitar                             |
C#|-7-5-----|------5-7~--5------|-5~~~----|
G#|-----8-7-|-8~------|-----8-7-|---------|
E |---------|---------|---------|---------|
B |---------|---------|---------|---------|
F#|---------|---------|---------|---------|
C#|---------|---------|---------|---------|
  |3rd guitar                             |
C#|---------|---------|---------|---------|
G#|---------|---------|---------|---------|
E |4---4-4--|-4--4----|--4----4-|4----4~--|
B |4---4-4--|-4--4----|--4----4-|4----4~--|
F#|2---2-2--|-2--2----|--2----2-|2----2~--|
C#|---------|---------|---------|---------|
                    

02:05

C#|----------------|----------------|----------------|----------------|
G#|----------------|----------------|----------------|----------------|
E |-2--------2---2-|-2----------2-2-|---2-------2----|-2--7~----------|
B |-2--------2---2-|-2----------2-2-|---2-------2----|-2--7~----------|
F#|-0--------0---0-|-0----------0-0-|---0-------0----|-0--5~----------|
C#|----------------|----------------|----------------|----------------|
             .   .              .               .      .

C#|----------------|----------------|----------------|----------------|
G#|----------------|----------------|----------------|----------------|
E |----------------|----------------|----------------|----------------|
B |-2--------2---2-|-2----------2-2-|-2---4---4---5--|-5---4---4---2--|
F#|-2--------2---2-|-2----------2-2-|-2---4---4---5--|-5---4---4---2--|
C#|-0--------0---0-|-0----------0-0-|-0---2---2---3--|-3---2---2---0--|
             .   .              . .                                   

C#|----------------|----------------|----------------|----------------|
G#|----------------|----------------|----------------|----------------|
E |-2--------2---2-|-2----------2-2-|---2-------2----|-2---7~---------|
B |-2--------2---2-|-2----------2-2-|---2-------2----|-2---7~---------|
F#|-0--------0---0-|-0----------0-0-|---0-------0----|-0---5~---------|
C#|----------------|----------------|----------------|----------------|
             .   .              .               .

C#|----------------|----------------|----------------|----------------|
G#|----------------|----------------|----------------|----------------|
E |----------------|----------------|----------------|----------------|
B |-2--------2---2-|-2----------2-2-|--2--------2----|-2--------2-----|
F#|-2--------2---2-|-2----------2-2-|--2--------2----|-2--------2-----|
C#|-0--------0---0-|-0----------0-0-|--0--------0----|-0--------0-----|
  |2nd guitar.   .              .               .                     |
C#|----------------|----------------|----------------|----------------|
G#|----------------|----------------|----------------|----------------|
E |----------------|----------------|----------------|----------------|
B |----------------|----------------|-2---4---4---5--|-5---4---4---5--|
F#|----------------|----------------|----------------|----------------|
C#|----------------|----------------|----------------|----------------|


C#|----------------|----------------|----------------|----------------|
G#|----------------|----------------|----------------|----------------|
E |-2--------2---2-|-2----------2-2-|---2-------2----|-2---7~---------|
B |-2--------2---2-|-2----------2-2-|---2-------2----|-2---7~---------|
F#|-0--------0---0-|-0----------0-0-|---0-------0----|-0---5~---------|
C#|----------------|----------------|----------------|----------------|
  |2nd guitar.   .              .               .                     |
C#|----------------|----------------|----------------|----------------|
G#|----------------|----------------|----------------|----------------|
E |----------------|----------------|----------------|----------------|
B |-7~-------7---7-|-7----------7-7-|---7---7---7----|-7-/-10--10-/-9-|
F#|----------------|----------------|----------------|----------------|
C#|----------------|----------------|----------------|----------------|


C#|----------------|----------------|----------------|----------------|
G#|----------------|----------------|----------------|----------------|
E |----------------|----------------|----------------|----------------|
B |-2--------2---2-|-2----------2-2-|--2--------2----|-2--------2-----|
F#|-2--------2---2-|-2----------2-2-|--2--------2----|-2--------2-----|
C#|-0--------0---0-|-0----------0-0-|--0--------0----|-0--------0-----|
  |2nd guitar.   .              .               .                     |
C#|----------------|----------------|----------------|----------------|
G#|----------------|----------------|----------------|----------------|
E |----------------|----------------|----------------|----------------|
B |-9--------9---9-|-9----------9-9-|-9/12--12/10----|-10/9--9/7------|
F#|----------------|----------------|----------------|----------------|
C#|----------------|----------------|----------------|----------------|


C#|----------------|----------------|----------------|----------------|
G#|----------------|----------------|----------------|----------------|
E |-2--------2---2-|-2----------2-2-|---2-------2----|-2---7~---------|
B |-2--------2---2-|-2----------2-2-|---2-------2----|-2---7~---------|
F#|-0--------0---0-|-0----------0-0-|---0-------0----|-0---5~---------|
C#|----------------|----------------|----------------|----------------|
  |2nd guitar.   .              .               .                     |
C#|----------------|----------------|----------------|----------------|
G#|----------------|----------------|----------------|----------------|
E |----------------|----------------|----------------|----------------|
B |-7/10--10/9-----|-9/7---7/5------|-5/4---4/5------|-5/4---4--------|
F#|----------------|----------------|----------------|----------------|
C#|----------------|----------------|----------------|----------------|



C#|----------------|----------------|----------------|----------------|
G#|----------------|----------------|----------------|----------------|
E |----------------|----------------|----------------|----------------|
B |-2--------2---2-|-2----------2-2-|--2--------2----|-2----2----2~~--|
F#|-2--------2---2-|-2----------2-2-|--2--------2----|-2----2----2~~--|
C#|-0--------0---0-|-0----------0-0-|--0--------0----|-0----0----0~~--|
  |2nd guitar.   .              .                                     |
C#|----------------|----------------|----------------|----------------|
G#|----------------|----------------|----------------|----------------|
E |----------------|----------------|----------------|----------------|
B |-7-------5/4----|-4^5-/4---2~----|----------------|----------------|
F#|----------------|----------------|----------------|----------------|
C#|----------------|----------------|----------------|----------------|


02:35

C#|----------------|----------------|----------------|----------------|
G#|----------------|----------------|----------------|----------------|
E |4-------4---4---|4--------4----4-|-----4--------4-|--4--------4~--/|
B |4-------4---4---|4--------4----4-|-----4--------4-|--4--------4~--/|
F#|2-------2---2---|2--------2----2-|-----2--------2-|--2--------2~--/|
C#|----------------|----------------|----------------|----------------|


C#|----------------|----------------|----------------|----------------|
G#|----------------|----------------|----------------|----------------|
E |----------------|----------------|----------------|----------------|
B |4-------4---4---|4--------4----4-|-----4--------4-|--4---4-4-5-4--/|
F#|4-------4---4---|4--------4----4-|-----4--------4-|--4---4-4-5-4--/|
C#|2-------2---2---|2--------2----2-|-----2--------2-|--2---2-2-3-2--/|


C#|----------------|----------------|----------------|----------------|
G#|----------------|----------------|----------------|----------------|
E |----------------|----------------|----------------|----------------|
B |2-------2---2---|2--------2----2-|-----2--------2-|--2--------2~---|
F#|2-------2---2---|2--------2----2-|-----2--------2-|--2--------2~---|
C#|0-------0---0---|0--------0----0-|-----0--------0-|--0--------0~---|


C#|----------------|----------------|----------------|----------------|
G#|----------------|----------------|----------------|----------------|
E |4-------4---4---|-4-----4-----4~~x----4~~x-----4~~x----4~~x-----4--|
B |4-------4---4---|-4-----4-----4~~x----4~~x-----4~~x----4~~x-----4--|
F#|2-------2---2---|-2-----2-----2~~x----2~~x-----2~~x----2~~x-----2--|
C#|----------------|----------------|----------------|----------------|
                                    .        .       .       .

02:49

C#|----------------|----------------|----------------|----------------|
G#|----------------|----------------|----------------|----------------|
E |4-------4---4---|4--------4----4-|-----4--------4-|--4--------4~--/|
B |4-------4---4---|4--------4----4-|-----4--------4-|--4--------4~--/|
F#|2-------2---2---|2--------2----2-|-----2--------2-|--2--------2~--/|
C#|----------------|----------------|----------------|----------------|


C#|----------------|----------------|----------------|----------------|
G#|----------------|----------------|----------------|----------------|
E |----------------|----------------|----------------|----------------|
B |4-------4---4---|4--------4----4-|-----4--------4-|--4---4-4-5-4--/|
F#|4-------4---4---|4--------4----4-|-----4--------4-|--4---4-4-5-4--/|
C#|2-------2---2---|2--------2----2-|-----2--------2-|--2---2-2-3-2--/|


C#|----------------|----------------|----------------|----------------|
G#|----------------|----------------|----------------|----------------|
E |----------------|----------------|----------------|----------------|
B |2-------2---2---|2--------2----2-|-----2--------2-|--2--------2~---|
F#|2-------2---2---|2--------2----2-|-----2--------2-|--2--------2~---|
C#|0-------0---0---|0--------0----0-|-----0--------0-|--0--------0~---|


C#|----------------|----------------|----------------|----------------|
G#|----------------|----------------|----------------|----------------|
E |4-------4---4---|-4-----4-----4~-|----4---4---4---|-4---4---4---4--|
B |4-------4---4---|-4-----4-----4~-|----4---4---4---|-4---4---4---4--|
F#|2-------2---2---|-2-----2-----2~-|----2---2---2---|-2---2---2---2--|
C#|----------------|----------------|----------------|----------------|
                                         .   .   .     .   .   .   .

03:04


C#|----------------|----------------|----------------|----------------|
G#|----------------|----------------|----------------|----------------|
E |-2--------2---2-|-2----------2-2-|---2-------2----|-2--7~----------|
B |-2--------2---2-|-2----------2-2-|---2-------2----|-2--7~----------|
F#|-0--------0---0-|-0----------0-0-|---0-------0----|-0--5~----------|
C#|----------------|----------------|----------------|----------------|
             .   .              .               .      .

C#|----------------|----------------|----------------|----------------|
G#|----------------|----------------|----------------|----------------|
E |----------------|----------------|----------------|----------------|
B |-2--------2---2-|-2----------2-2-|-2---4---4---5--|-5---4---4---2--|
F#|-2--------2---2-|-2----------2-2-|-2---4---4---5--|-5---4---4---2--|
C#|-0--------0---0-|-0----------0-0-|-0---2---2---3--|-3---2---2---0--|
             .   .              . .                                   

C#|----------------|----------------|----------------|----------------|
G#|----------------|----------------|----------------|----------------|
E |-2--------2---2-|-2----------2-2-|---2-------2----|-2---7~---------|
B |-2--------2---2-|-2----------2-2-|---2-------2----|-2---7~---------|
F#|-0--------0---0-|-0----------0-0-|---0-------0----|-0---5~---------|
C#|----------------|----------------|----------------|----------------|
             .   .              .               .

C#|----------------|----------------|----------------|----------------|
G#|----------------|----------------|----------------|----------------|
E |----------------|----------------|----------------|----------------|
B |-2--------2---2-|-2----------2-2-|--2--------2----|--2--2--2--2----|
F#|-2--------2---2-|-2----------2-2-|--2--------2----|--2--2--2--2----|
C#|-0--------0---0-|-0----------0-0-|--0--------0----|--0--0--0--0----|
             .   .              .               .                     

C#|----------------|----------------|----------------|----------------|
G#|----------------|----------------|----------------|----------------|
E |-2--------2---2-|-2----------2-2-|---2-------2----|-2---7~---------|
B |-2--------2---2-|-2----------2-2-|---2-------2----|-2---7~---------|
F#|-0--------0---0-|-0----------0-0-|---0-------0----|-0---5~---------|
C#|----------------|----------------|----------------|----------------|
             .   .              .               .

C#|----------------|----------------|----------------|----------------|
G#|----------------|----------------|----------------|----------------|
E |----------------|----------------|----------------|----------------|
B |-2--------2---2-|-2----------2-2-|-2---4---4---5--|-5---4---4---2--|
F#|-2--------2---2-|-2----------2-2-|-2---4---4---5--|-5---4---4---2--|
C#|-0--------0---0-|-0----------0-0-|-0---2---2---3--|-3---2---2---0--|
  |2nd guitar.   .              . .                                   |                                    
C#|----------------|----------------|----------------|----------------|
G#|----------------|----------------|----------------|----------------|
E |----------------|----------------|----------------|----------------|
B |----------------|----------------|----------------|----------------|
F#|----------------|----------------|-7---5---5---3--|-3---2---2---3--|
C#|----------------|----------------|----------------|----------------|

C#|----------------|----------------|----------------|----------------|
G#|----------------|----------------|----------------|----------------|
E |-2--------2---2-|-2----------2-2-|---2-------2----|-2---7~---------|
B |-2--------2---2-|-2----------2-2-|---2-------2----|-2---7~---------|
F#|-0--------0---0-|-0----------0-0-|---0-------0----|-0---5~---------|
C#|----------------|----------------|----------------|----------------|
             .   .              .               .

C#|----------------|----------------|----------------|
G#|----------------|----------------|----------------|
E |----------------|----------------|----------------|
B |-7~-------------|-5~-------------|-7~~~~~~~~~~~~~~|
F#|-7~-------------|-5~-------------|-7~~~~~~~~~~~~~~|
C#|-5~-------------|-3~-------------|-5~~~~~~~~~~~~~~|
Tap to rate this tab
# A B C D E F G H I J K L M N O P Q R S T U V W X Y Z