Guitaretab - guitar tabs
Song name
# A B C D E F G H I J K L M N O P Q R S T U V W X Y Z

Thermo - Contra Mi tab

aki esta esta rola se la ddiko a blankita del belisario y a monik del cetis34 ke
kada dia se ponen mas buenas las dos y mas desmadrosas.

intro x4

e|----------------------------------------------------------------|
B|----------------------------------------------------------------|
G|----------------------------------------------------------------|
D|-2--2--2-2-2---4--4--4--4-4-4--5--5--5--5-5-5--3--3--3--2--2--2-|
A|-2--2--2-2-2---2--2--2--2-2-2--5--5--5--5-5-5--1--1--1--0--0--0-|
E|----------------------------------------------------------------|

verso
esto va x2
e|----------------------------------------------------|
B|-8--8--8--8--8--8--8--8---8--8--8--8--8--8--8--8----|
G|---9--9--9--9--9--9--9--9---8--8--8--8--8--8--8--8--|
D|----------------------------------------------------|
A|----------------------------------------------------|
E|----------------------------------------------------|

e|------------------------------------|
B|-8--8--8--8--8--8--8--8--8----------|
G|---9--9--9--9--9--9--9--9--9--------|
D|------------------------------------|
A|------------------------------------|
E|------------------------------------|

luego haces esto una vez
e|-----7-------7---------7-------7----------|
B|-8-------8---------8-------8--------------|
G|---9---9---9---9-----8---8---8---8--------|
D|------------------------------------------|
A|------------------------------------------|
E|------------------------------------------|

coro
e|--------------------------------------------------------------|
B|--------------------------------------------------------------|
G|--------------------------------------------------------------|
D|-9--9--9-9-9-9---4--4--4-4-4-4--5--5--5-5-5-5--7--7--7-7-7-7--|
A|-7--7--7-7-7-7---2--2--2-2-2-2--3--3--3-3-3-3--5--5--5-5-5-5--|
E|--------------------------------------------------------------|

e|--------------------------------------------------------------|
B|--------------------------------------------------------------|
G|--------------------------------------------------------------|
D|-9--9--9-9-9-9---4--4--4-4-4-4--5--5--5-5-5-5--7--7--7-7-7-7--|
A|-7--7--7-7-7-7---2--2--2-2-2-2--3--3--3-3-3-3--5--5--5-5-5-5--|
E|--------------------------------------------------------------|

e|------------------------------------------------------|
B|------------------------------------------------------|
G|------------------------------------------------------|
D|-9-9-9-9-9-9-9-9-4-4-4-4-4-4-4-4-5-5-5-5-5-5-5-5------|
A|-7-7-7-7-7-7-7-7-2-2-2-2-2-2-2-2-3-3-3-3-3-3-3-3------|
E|------------------------------------------------------|

e|---------------------|
B----------------------|
G|---------------------|
D|-7-7-7-7-7-7-7-7-----|
A|-5-5-5-5-5-5-5-5-----|
E|---------------------|

e|------------------------------------------------------|
B|------------------------------------------------------|
G|------------------------------------------------------|
D|-9-9-9-9-9-9-9-9-4-4-4-4-4-4-4-4-5-5-5-5-5-5-5-5------|
A|-7-7-7-7-7-7-7-7-2-2-2-2-2-2-2-2-3-3-3-3-3-3-3-3------|
E|------------------------------------------------------|

e|---------------------|
B----------------------|
G|---------------------|
D|-7-7-7-7-7-7-7-7-----|
A|-5-5-5-5-5-5-5-5-----|
E|---------------------|

e|------------------------------|
B|------------------------------|
G|-/12-11-9-8-9/8---------------|
D|------------------------------|
A|------------------------------|
E|------------------------------|

intro x1
e|----------------------------------------------------------------|
B|----------------------------------------------------------------|
G|----------------------------------------------------------------|
D|-2--2--2-2-2---4--4--4--4-4-4--5--5--5--5-5-5--3--3--3--2--2--2-|
A|-2--2--2-2-2---2--2--2--2-2-2--5--5--5--5-5-5--1--1--1--0--0--0-|
E|----------------------------------------------------------------|

verso
esto va x2
e|----------------------------------------------------|
B|-8--8--8--8--8--8--8--8---8--8--8--8--8--8--8--8----|
G|---9--9--9--9--9--9--9--9---8--8--8--8--8--8--8--8--|
D|----------------------------------------------------|
A|----------------------------------------------------|
E|----------------------------------------------------|

e|------------------------------------|
B|-8--8--8--8--8--8--8--8--8----------|
G|---9--9--9--9--9--9--9--9--9--------|
D|------------------------------------|
A|------------------------------------|
E|------------------------------------|

y luego haces esto
e|-----7-------7--------7-------7-----------|
B|-8-------8--------8-------8---------------|
G|---9---9---9---9----8---8---8---8---------|
D|------------------------------------------|
A|------------------------------------------|
E|------------------------------------------|

e|------------------------------------------|
B|-10---10---10---10---10---10---10---10----|
G|----11---11---11---11---11---11---11---11-|
D|------------------------------------------|
A|------------------------------------------|
E|------------------------------------------|
[ Tab from: http://www.guitaretab.com/t/thermo/105948.html ]
e|---------------------------------------|
B|-12---12---12---12---12---12-----------|
G|----12---12---12---12---12---12--------|
D|---------------------------------------|
A|---------------------------------------|
E|---------------------------------------|

e|------------------------------------------|
B|-10---10---10---10---10---10---10---10----|
G|----11---11---11---11---11---11---11---11-|
D|------------------------------------------|
A|------------------------------------------|
E|------------------------------------------|

e|-----------------------------------|
B|-8--8--8--8---12---12---12---------|
G|---9--9--9--9----12---12---12------|
D|-----------------------------------|
A|-----------------------------------|
E|-----------------------------------|

coro
e|--------------------------------------------------------------|
B|--------------------------------------------------------------|
G|--------------------------------------------------------------|
D|-9--9--9-9-9-9---4--4--4-4-4-4--5--5--5-5-5-5--7--7--7-7-7-7--|
A|-7--7--7-7-7-7---2--2--2-2-2-2--3--3--3-3-3-3--5--5--5-5-5-5--|
E|--------------------------------------------------------------|

e|--------------------------------------------------------------|
B|--------------------------------------------------------------|
G|--------------------------------------------------------------|
D|-9--9--9-9-9-9---4--4--4-4-4-4--5--5--5-5-5-5--7--7--7-7-7-7--|
A|-7--7--7-7-7-7---2--2--2-2-2-2--3--3--3-3-3-3--5--5--5-5-5-5--|
E|--------------------------------------------------------------|

e|------------------------------------------------------|
B|------------------------------------------------------|
G|------------------------------------------------------|
D|-9-9-9-9-9-9-9-9-4-4-4-4-4-4-4-4-5-5-5-5-5-5-5-5------|
A|-7-7-7-7-7-7-7-7-2-2-2-2-2-2-2-2-3-3-3-3-3-3-3-3------|
E|------------------------------------------------------|

e|---------------------|
B----------------------|
G|---------------------|
D|-7-7-7-7-7-7-7-7-----|
A|-5-5-5-5-5-5-5-5-----|
E|---------------------|

e|------------------------------------------------------|
B|------------------------------------------------------|
G|------------------------------------------------------|
D|-9-9-9-9-9-9-9-9-4-4-4-4-4-4-4-4-5-5-5-5-5-5-5-5------|
A|-7-7-7-7-7-7-7-7-2-2-2-2-2-2-2-2-3-3-3-3-3-3-3-3------|
E|------------------------------------------------------|

e|---------------------|
B----------------------|
G|---------------------|
D|-7-7-7-7-7-7-7-7-----|
A|-5-5-5-5-5-5-5-5-----|
E|---------------------|

outro
e|-------------------------------------------------------|
B|-------------------------------------------------------|
G|-/12--11--9--8--9--8--5--7--5--4--5--4--/12--12--11----|
D|-------------------------------------------------------|
A|-------------------------------------------------------|
E|-------------------------------------------------------|

e|----------------------------------------------|
B|----------------------------------------------|
G|-/14--14--12---12--12--11---12--11--12/14-----|
D|----------------------------------------------|
A|----------------------------------------------|
E|----------------------------------------------|

e|----------------------------------------------------------|
B|-12--12--10---13--13--12---12--12--10---12--10--12--13----|
G|----------------------------------------------------------|
D|----------------------------------------------------------|
A|----------------------------------------------------------|
E|----------------------------------------------------------|

solo
e|--------------------------------------------------------------------|
B|--------------------------------------------------------------------|
G|--------------------------------------------------------------------|
D|--------------------------------------------------------------------|
A|-2/10--10--9--7--2--10--9--7--6--14--12--15--14--14--12--15--17--19-|
E|--------------------------------------------------------------------|

coro
e|--------------------------------------------------------------|
B|--------------------------------------------------------------|
G|--------------------------------------------------------------|
D|-9--9--9-9-9-9---4--4--4-4-4-4--5--5--5-5-5-5--7--7--7-7-7-7--|
A|-7--7--7-7-7-7---2--2--2-2-2-2--3--3--3-3-3-3--5--5--5-5-5-5--|
E|--------------------------------------------------------------|

e|--------------------------------------------------------------|
B|--------------------------------------------------------------|
G|--------------------------------------------------------------|
D|-9--9--9-9-9-9---4--4--4-4-4-4--5--5--5-5-5-5--7--7--7-7-7-7--|
A|-7--7--7-7-7-7---2--2--2-2-2-2--3--3--3-3-3-3--5--5--5-5-5-5--|
E|--------------------------------------------------------------|

y aki esto va 4 veses
e|------------------------------------------------------|
B|------------------------------------------------------|
G|------------------------------------------------------|
D|-9-9-9-9-9-9-9-9-4-4-4-4-4-4-4-4-5-5-5-5-5-5-5-5------|
A|-7-7-7-7-7-7-7-7-2-2-2-2-2-2-2-2-3-3-3-3-3-3-3-3------|
E|------------------------------------------------------|

e|---------------------|
B----------------------|
G|---------------------|
D|-7-7-7-7-7-7-7-7-----|
A|-5-5-5-5-5-5-5-5-----|
E|---------------------|

ACORDE FINAL
e|------|
B|------|
G|------|
D|-9----|
A|-7----|
E|------|

bueno ps akista y antes de kejarce chekenla bien y oygan bien
la rola pake le entiendan
Related for Contra Mi tab