Song name
# A B C D E F G H I J K L M N O P Q R S T U V W X Y Z

Thermo - Lo Siento tab

BUENO KARNALES AY LES DEJO ESTA CANCION BASTANTE BUENA DE THERMO
MAS ACORDES O TABLATURAS
DE ESTE DISCO CONTACTENME john_frusciante87@hotmail.com...

ACORDES UTILIZADOS:

E     B    G#m   C#m   A

INICIO:

SINTETIZADOR PARTE 1;

e------------------------------------------------|
B------------------------------------------------|
G--6--6-------------6--6-------------------------|
D---6---6-----6------6---------------------------|
A---------7-9------------7-6-----4---------------|
E------------------------------------------------|

SINTETIZADOR PARTE 2;

e------------------------------------------------|
B------------------------------------------------|
G----------4-------------------------------------|
D------4-------4---------------------------------|
A--6-7---7---7---6-------------------------------|
E------------------------------------------------|

GUITARRAS PARTE 1;

         C#m                    G#m
e------------------------------------------------|
B------------------------------------------------|
G--6-6-6-6-6-6-6-6-6-6---------------------------|   X 2
D--6-6-6-6-6-6-6-6-6-6--6-6-6-6-6-6-6-6-6-6------|
A--4-4-4-4-4-4-4-4-4-4--6-6-6-6-6-6-6-6-6-6------|
E-----------------------4-4-4-4-4-4-4-4-4-4------|

GUITARRAS PARTE 2;

              E
e------------------------------------------------|
B------------------------------------------------|
G--9-9-9-9-9-9-9-9-9-9-9-9-9-9-9-9---------------|
D--9-9-9-9-9-9-9-9-9-9-9-9-9-9-9-9---------------|
A--7-7-7-7-7-7-7-7-7-7-7-7-7-7-7-7---------------|
E------------------------------------------------|   X 2

              G#m
e------------------------------------------------|
B------------------------------------------------|
G------------------------------------------------|
D--6-6-6-6-6-6-6-6-6-6-6-6-6-6-6-6---------------|
A--6-6-6-6-6-6-6-6-6-6-6-6-6-6-6-6---------------|
E--4-4-4-4-4-4-4-4-4-4-4-4-4-4-4-4---------------|


VERSO:


EN ESTA PARTE DEL VERSO LLEVA ESTE RIFF;

GUITARRA 1;
               E                              G#m
e---------------------------------------------------------------|
B---------------------------------------------------------------|
G---------------------------------------------------------------|
D---------------------------------------------------------------|
A--7-7-7-7-7-7-7-7-7-7-7-7-7-7-7--------------------------------|
E--------------------------------4-4-4-4-4-4-4-4-4-4-4-4-4-4-4--|

GUITARRA 2;

e------------------------------------------------|
B------------------------------------------------|
G--8-11---8--------------------------------------|  X 8
D-------9----------------------------------------|
A------------------------------------------------|
E------------------------------------------------|


E        G#m                E                    G#m
te escuchare sintiendo el aire en mi piel cada latido de tu ser..

EN ESTA PARTE DEL VERSO LLEVA ESTE RIFF;

e-----------------9-9-9--------------------------------|
B--7-7-7-7-7-7-7--7-7-7--------------------------------|
G--9-9-9-9-9-9-9--9-9-9--------------------------  X 8-|
D--9-9-9-9-9-9-9---------------------------------------|
A------------------------------------------------------|
E------------------------------------------------------|


E                       B
hoy se que puedo demostrar
                        G#m
y se que es mi oportunidad
                         B
para olvidar, lo que te dije no es verdad

lo siento..


E                        B
si tanto tiempo ha de pasar
                      G#m
para que llegues a confiar una vez mas
         B                             E
y que volvamos a empezar de cerooooooooooououo..


PRECORO:


   E     B    G#m
e-----|-----|-----|
B-----|-----|-----|
G-----|--4--|-----|
D--2--|--4--|--6--|
A--2--|--2--|--6--|
E--0--|-----|--4--|

E          B         G#m         B
y hoy te vuelvo a buscar no hay marcha atras...


CORO:

  E     C#m   G#m    B
e-----|-----|-----|-----|
B-----|-----|-----|-----|
G--9--|--6--|-----|-----|
D--9--|--6--|--6--|--9--|
A--7--|--4--|--6--|--9--|
E-----|-----|--4--|--7--|

E                                      C#m
no hay mas no, no, no hay mas es el momento, bailar,
                  G#m                      B
sentir nuestros cuerpos sudar,no te rindas no...


ESTO ES LO QUE ASE EL SINTETIZADOR EN EL CORO:

  ESTO HACE EN LOS CORO   | ESTO ES LO QUE HACE AL TERMINAR
                          |       SOLO EN EL PRIMER CORO
e----------------7--------|------------------------|
B--9-7--------------------|------------------------|
G------9-8---8-9---9------|----------------4-------|
D----------9--------------|--6-4-------------------|
A-------------------------|------7-6---6-7----7----|
E-------------------------|----------7-------------|

PARTE DEL PRIMER INTERMEDIO:

  C#m    B     A    G#m
e-----|-----|-----|-----|
B-----|-----|-----|-----|
G-----|-----|-----|-----|
D-----|-----|-----|-----|
A--11-|--9--|--7--|--6--|
E--9--|--7--|--5--|--4--|

C#m       B                        A
dejame tocar sentir tus latidos volver

a escuchar  poder respirar volver a sentir
      G#m
el calor de tu piel...

ESTO ES LO QUE HACE LA SEGUNDA GUITARRA CUANDO TERMINA DE DECIR
LA ULTIMA PALABRA DE ESTE INTERMEDIO:

e------------------------------------------------------------------|
B------------------------------------------------------------------|
G--13-13-13-13-13-13-13-13-13--11-11-11-11-11-11-13-13-13-13-13----|
D------------------------------------------------------------------|
A--11-11-11-11-11-11-11-11-11--9--9--9--9--9--9--11-11-11-11-11-11-|
E------------------------------------------------------------------|


CORO:

 E     C#m   G#m    B
e-----|-----|-----|-----|
B-----|-----|-----|-----|
G--9--|--6--|-----|-----|
D--9--|--6--|--6--|--9--|
A--7--|--4--|--6--|--9--|
E-----|-----|--4--|--7--|

E                                      C#m
no hay mas no, no, no hay mas es el momento, bailar,
                  G#m                      B
sentir nuestros cuerpos sudar,no te rindas no oo
E                                      C#m
no hay mas no, no, no hay mas es el momento, bailar,
                  G#m                      B
sentir nuestros cuerpos sudar,no te rindas no oo

INTERLUTE:

GUITARRA 1;

 E      G#m    B    G#m
e-----|-----|-----|-----|
B-----|-----|-----|-----|
G-----|-----|-----|-----|
D--9--|-----|-----|-----|
A--7--|--6--|--9--|--6--|
E-----|--4--|--7--|--4--|


GUITARRA 2;
e-----------------------------------------------------------------|
B------12/14-14-------12/14-14-------12/14-14---14-14--12--11-11--|
G-----------------------------------------------------------------|
D-----------------------------------------------------------------|
A--14--14/16-16---14--14/16-16---14--14/16-16---16-16--14--13-13--|
E-----------------------------------------------------------------|

PARTE DEL SEGUNDO INTERMEDIO:

e------------------------------------------------|
B----------7-------------------------------------|
G------9-----9---9-------------------------------| X 8
D--9-9---9-----9---------------------------------|
A------------------------------------------------|
E------------------------------------------------|


e----------9-------------------------------------|
B------------7---7-------------------------------|
G------9-------9---------------------------------| X 5
D--9-9---9---------------------------------------|
A------------------------------------------------|
E------------------------------------------------|


E                      B
y hoy te vuelvo a buscar pasa lento el tiempo
E
y hoy te vuelvo a buscar no te puedo encontrar
                                 B
y volver a empezar de de cero y hoy te vuelvo a buscar

no te puedo encontrar y volver a empezar de de cero...


CORO:

 E     C#m   G#m    B
e-----|-----|-----|-----|
B-----|-----|-----|-----|
G--9--|--6--|-----|-----|
D--9--|--6--|--6--|--9--|
A--7--|--4--|--6--|--9--|
E-----|-----|--4--|--7--|

E                                      C#m
no hay mas no, no, no hay mas es el momento, bailar,
                  G#m                      B
sentir nuestros cuerpos sudar,no te rindas no oo
E                                      C#m
no hay mas no, no, no hay mas es el momento, bailar,
                  G#m                      B
sentir nuestros cuerpos sudar,no te rindas no oo

E

ASI TERMINA:

   E
e-----|
B-----|
G-----|
D--2--|
A--2--|
E--0--|
Tap to rate this tab
# A B C D E F G H I J K L M N O P Q R S T U V W X Y Z