Song name
# A B C D E F G H I J K L M N O P Q R S T U V W X Y Z

Thermo - Donde Estas tab

Este es el intro que en realidad se toka con teclados
pero la saque en guitarra

Intro

e-6-4-3-6---4-3-4-6---4-3---6-4-3----|
b---------4---------4----------------|
g------------------------------------|
d------------------------------------|
a------------------------------------|
E------------------------------------|

estos acordes se dejan sonando mientras la primera guitarra
toka el intro

GII

e------------------------------------|
b------------------------------------|
g--5----------------8------3---------|
d--5--------6-------8------3---------|
a--3--------6-------6------1---------|
E-----------4------------------------|

Esto va despues del intro y antes del verso

GI

e-0/4-66666666---------3/44444433334444---|
b-------------4444/6666-------------------|
g-----------------------------------------|
d-----------------------------------------| se repite varias veces
a-----------------------------------------|
E-----------------------------------------|

GII


e----------------------------------------------|
b----------------------------------------------|
g--555555----------------888888------333333----| Se toka varias
d--555555---666666-------888888------333333----| veces escuchen
a--333333---666666-------666666------111111----| la rola para
E-----------444444-----------------------------| savr exactament


El siguiente acorde se toka en todos los primeros versos
escuchen cancion para saber donde va

VERSO:

GI   0:36

e-----------|
b-----------|
g----55-5---|
d-PM-55-5---| Hoy no entiendo por que el tiempo ke se vaaa ....
a----33-3---|
E-----------| no borra las heridas ahi estan

GII

e-------------------------------------|
b--4-4-4-4-4-4-4-4-4-4-4-4------------|
g---3-3-3-3-3-3-3-3-3-3-3-3-----------|
d-------------------------------------| se toka varias veces
a-------------------------------------|
E-------------------------------------|

CORO:

0:58

GI      Por que huoooy (espera ya) .......

e-6-4-3-6---4-3-4-6---4-3---6-4-3----|
b---------4---------4----------------|
g------------------------------------|
d------------------------------------| se repite
a------------------------------------|
E------------------------------------|

GII

e---------------------------------------|
b---------------------------------------|
g--555555-----------88888------33333----|
d--555555---666666--88888------33333----|
a--333333---666666--66666------11111----|
E-----------444444----------------------|

1:18


e------|
b------|
g--88--|
d--88--| Por ke no pasa el diaa
a--66--|
E------|

1:32     yyyyy las lagrimas ...

e------------------------------------|
b------------------------------------|
g--8888--33-5-3----------------------| escuchen la rola parasaber
d--xxxx--xx-x-x----------------------| donde mas se toka
a--6666--11-3-1----------------------|
E------------------------------------|


VERSO:

GI   1:38

e-----------|
b-----------|
g----55-5---|
d-PM-55-5---|  las lagrimas se corren sin parar .....
a----33-3---|
E-----------|

GII

e-------------------------------------|
b--4-4-4-4-4-4-4-4-4-4-4-4------------|
g---3-3-3-3-3-3-3-3-3-3-3-3-----------|
d-------------------------------------| se toka varias veces
a-------------------------------------|
E-------------------------------------|

GI  1:49    donde estaaas?

e--------------------------------------
b--------------------------------------
g-55555-------55555------8888--10------
d-55555-66666-55555-PM---xxxx--x-------
a-33333-66666-33333------6666--8-------
E-------44444--------------------------

CORO:

GI      Por que huoooy (espera ya) .......

e-6-4-3-6---4-3-4-6---4-3---6-4-3----|
b---------4---------4----------------|
g------------------------------------|
d------------------------------------| se repite
a------------------------------------|
E------------------------------------|

GII

e---------------------------------------|
b---------------------------------------|
g--555555-----------88888------33333----|
d--555555---666666--88888------33333----|
a--333333---666666--66666------11111----|
E-----------444444----------------------|

MINUTO 2:23

e----------------------|
b---------4-3----------|
g--10---------3-55-----|
d--10------------------|
a--8-------------------|
E----------------------|

2:29  SOLO

e--8-11---------------8---------------|
b-------11-8-----8-11---11-8----------|
g------------8/7-------------8/7------| SE REPITE
d-------------------------------------|
a-------------------------------------|
E-------------------------------------|

GI  2:51

e------------------------------------|
b------------------------------------|
g--555555-8-7-3-55-------------------|
d--xxxxxx-x-x-x-xx-------------------| al principio se toka con una
a--333333-6-5-1-33-------------------| sola lira y ya luego entra
E------------------------------------| la segunda tokando lo mismo

despues entra esta

GII   3:02

e--6-4-3-----6-4-3--------------------|
b--------4-4-------4-66---------------|
g-------------------------------------| se repite VARIAS VECES
d-------------------------------------|
a-------------------------------------|
E-------------------------------------|

3:25

GI

e----------------------------|
b----------------------------|
g----5-555555555-5-555555555-|
d-PM-5-555555555-5-555555555-|
a----3-333333333-3-333333333-|
E----------------------------|

GII

e---6-----------|
b-------2-------|
g--3------------|
d-----5---------|
a---------------|
E---------------|

TERMINA CON ESTO

e--------|
b--------|
g--55555-|
d--55555-|
a--33333-|
E--------|
Tap to rate this tab
# A B C D E F G H I J K L M N O P Q R S T U V W X Y Z