Song name
# A B C D E F G H I J K L M N O P Q R S T U V W X Y Z

Thermo - Cenizas tab

Intro (guitarra 1)

e ---------------------------------------------------------------|
b ---------------------------------------------------------------|
g 555-55-5-55-5-55--33-3-33-3-33-3-33--11-1-11-1-11-1-11-----5-|
d 55-5-55-5-55-5-55--33-3-33-3-33-3-33--11-1-11-1-11-1-11--3--x-|
a 555-55-5-55-5-55--33-3-33-3-33-3-33--11-1-11-1-11-1-11--3--3-|
D ----------------------------------------------------------3----|
   ..   ..   ..   ..  ..   ..   ..   ..  ..   ..   ..   ..

Guitarra2


e ---------------------------------------------------------------|
b ---------------------------------------------------------------|
g 555-55-5-55-5-55--33-3-33-3-33-3-33--11-1-11-1-11-1-11-----5-|
d xx-x-xx-x-xx-x-xx-xx-x-xx-x-xx-x-xx-xx-x-xx-x-xx-x-xx--3--x-|
a 555-55-5-55-5-55--33-3-33-3-33-3-33--11-1-11-1-11-1-11--3--3-|
D ----------------------------------------------------------3----|
   ..   ..   ..   ..  ..   ..   ..   ..  ..   ..   ..   ..  .


Verso:


e ---------------------------------------------------------------|
b ---------------------------------------------------------------|
g --------------------------------------------------------------| x 2
d 55555555555--33333333333--11111111111--333333333333-----------|
a 55555555555--33333333333--11111111111--333333333333-----------|
D -55555555555--33333333333--11111111111--333333333333-----------|


Guitarra 2

e ---------------------------------------------------------------|
b ---------------------------------------------------------------|
g 7-9-10-9-12-9-10-9-7------------------------------------------| x ?
d x-x-x--x--x-x-x--x-x------------------------------------------|
a 5-7-8--7-10-7-8--7-5------------------------------------------|
D ---------------------------------------------------------------|

Clean: 00:27

e --------------------------------------------------------------|
b --------------------------------------------------------------|
g 14--------12------10-----7------10---------------------------|
d -x(x-7)--x(x7)--x(x7)-x-(x5)-x(5)------------------------| (X 1)
a 12--------10------8------5------7----------------------------|
D --------------------------------------------------------------|

00:36

e ------------------------------------------------------------|
b ------------------------------------------------------------|
g -15---14--12---14--15--14--15--17--------------------------|
d --X----X---X---X---X----X---X---X--------------------------|
a -13---12--10---12--13--12--13--15--------------------------|
D ------------------------------------------------------------|

GUITARRA 2  00:36


e ---------------|
b ---------------|
g --------------| x 2
d 55555555555---|
a 55555555555---|
D -55555555555---|

00:38    aun siento el olor de tu piel

e -----0--------|
b ---3---2------|
g 2--2----2----| x 4
d -------------|
a -------------|
guitarra 2  00:43

e -5----------|
b ---6-5------|
g ------7----|
d -----------|
a -----------|

00:47 grito( y no se vaaaaaa)


e --------------|
b --------------|
g -------------| x 4
d 55--00--11---|
a 55--00--11---|
D -55--00--11---|

(Reflector) vete de mi (reflector)...  00:51


e -----------------|
b -----------------|
g 14-14-14--12----|
d ----------------|
a ----------------|

01:00

e -------6-7-6-----|
b -----------------|
g 0/8-8-----------| x 7
d ----------------|
a ----------------|

01:09

e -------9-11-9----|
b -----------------|
g 0/8-8-----------| x 7
d ----------------|
a ----------------|

guitarra 2  esto se toka desde el minuto  00:51  asta el minuto 01:47


e -6--4--2----------|
b -----------4------|
g -----------------|
d -----------------|
a -----------------|

guitarra 1:   01:28


 e ----------------------|
b -----------------------|
g 8888888-222222-444444-|
d 8888888-222222-444444-|
a 6666666-444444-222222-|
D -----------------------|

Guitarra 2   01:28


e -6--4--2----------|
b -----------4------|
g -----------------|
d -----------------|
a -----------------|

01:47

e -6--4--2--4-2--6-4--2-4-6-4-2----|
b ------------------------------4--|
g --------------------------------|
d --------------------------------|

guitarra 1:   01:47

 e ----------------------|
b -----------------------|
g 8888888-222222-444444-|
d 8888888-222222-444444-|
a 6666666-444444-222222-|
D -----------------------|

01:57

e -------------------------------------------------------------------|
b -------------------------------------------------------------------|
g 14--7-9-10-14--------14--7-9--15-15-15-15-15--12------17-15-14-12-|
d -x-x-x-x--x---(x 3)--x--x-x---x-x-x-x-x-x-x--x-(x 5)-x---x-x--x--| x2
a 12--5-7-8--12--------12--5-7--13131313131313-10------15-13-12-10-|
D -------------------------------------------------------------------|

02:09

e -6-4-2-4-6-4-2-4-6-4-2-4-6-7-6--|
b --------------------------------|
g -------------------------------|
d -------------------------------|

02:17   ( ME VEO EN TI , SIN SABER..

GUITARRA: 2

e -11-13----|
b -------11-|
g ---------|
d ---------|

02:40  ( ME VEO EN TI , SIN SABER POR KE)

e -----------|
b -12--------|
g X---555555|
d 10--555555| ESCUCHEN LA ROLA PA SABER EN KE PARTES SE TOKA
a ----555555|
       . .. .
GUITARRA:2 CASI TODO EL TIEMPO

e ---6-7-6|
b -4------|
g -------|
d -------|

03:00
e --------------------------------------------------------|
b --------------------------------------------------------|
g 7777-9999-1010-121212--7777--9999--6666-7777-----------| X 2
d XXXX-XXXX-XXXX-XXXXXX--XXXX--XXXX--XXXX-XXXX-----------|
a 5555-7777-8888-101010--5555--7777--4444-5555-----------|
D --------------------------------------------------------|

03:12 GUITARRA: 1

e ---------|
b ---------|
g --555555|
d --555555| VARIAS VECES
a --555555|
     ......

e ---6-7-6|
b -4------|
g -------|
d -------

e ----|
b ----|
g --5| TERMINA CON ESTO Y SE DEJA SONANDO
d --5|
a --5|

Tap to rate this tab
# A B C D E F G H I J K L M N O P Q R S T U V W X Y Z