Song name
# A B C D E F G H I J K L M N O P Q R S T U V W X Y Z

These Arms Are Snakes - Horse Girl tab

-------------------------------------------------------------------------------
			     Horse Girl - These Arms Are Snakes
-------------------------------------------------------------------------------
Tabbed by: Jenky
Email:jenky1901@hotmail.com

Tuning: EADGBe

First off, i know its a cliche but this IS my first tab. Its extremely basic and i only 
it purely from messing around. I'm doing it in the hopes someone can take it and figure 
the rest of the song because im desperate to play it in full!

Intro/Main Riff

e|--------------------------------|
B|--------------------------------|
G|--3^0-------------3-------------|
D|------5^0--3/5^0----0h5^0-3/5-5-|
D|--------------------------------|
A|--------------------------------|
E|--------------------------------|

Chorus (3/4 Time)

e|--------------------------------|
B|--------------------------------|
G|--------------------------------|
D|5---------------3---------------|
A|5---------------3---------------|
E|3---------------1---------------|

As you can see it is pretty rough but its a fun riff anyway. If anyone can update and 
i beg them to as its one of my faves!!!

cheers
Jenky


| /  slide up
| \  slide down
| h  hammer-on
| p  pull-off
| ~  vibrato
| +  harmonic
| x  Mute note
===============================================================================
Tap to rate this tab
 
# A B C D E F G H I J K L M N O P Q R S T U V W X Y Z