Song name
# A B C D E F G H I J K L M N O P Q R S T U V W X Y Z

These Arms Are Snakes - Your Pearly Whites tab

**OOPS I submitted an earlier tab with no credit and before I made some changes so this 
the proper tab.. sorry.**

TITLE  : Your Pearly Whites
ARTIST : These Arms Are Snakes
ALBUM  : Oxeneers Or the Lion Sleeps When Its Antelope Go
TUNING : Standard (EADGBe)

My favorite TAAS song and also my first tab. There are a few variations throughout the 
i tried to get down. These guys are sick on concert so learn a

song and see them live. I never truncated the bars so they are definitely uneven sorry. 
the tab is right on listen to it. Anyways the other tabs

sucked so here's the perfect one:

(0:00) This family blood it runs through me thin as oil in water..

e ----10------10------10------10-------7-------|
B -7-------7-------7-------7-----7h8-------8---|
G ---------------------------------------------|
D ---------------------------------------------|
A ---------------------------------------------|
E ---------------------------------------------|

Last time (0:44):
e ----10------10------10-----------------------|
B -7-------7-------7---------------------------|
G ---------------------------------------------|
D ---------------------------------------------|
A ---------------------------------------------|
E ---------------------------------------------|

(0:46) Someone once said, "Why do you try to speak, when you don't have a mouth?"

e ---------------------------------------------|
B ---------------7-----------------------------|
G -------------------7-------------------------|
D -----7h9-------------------------------------|
A ---------------------------------------------|
E -7-------------------------------------------|

e ---------------------------------------------|
B ---------------------------------------------|
G ---------------------------------------------|
D -----7h9-----------9-------------------------|
A ---------------9-----------------------------|
E -7-------------------------------------------|

Middle (1:09):
e ---------------------------------------------|
B ---------------7---8-------------------------|
G ---------------------------------------------|
D -----7h9-------------------------------------|
A ---------------------------------------------|
E -7-------------------------------------------|

Last time (1:32):
e ---------------------------------------------|
B ---------------------------------------------|
G ---------------------------------------------|
D ---------------------------------------------|
A ---------------------------------------------|
E -7-------------5-----------------------------|

(1:35) Why do you let them cut your teeth while you sleep?

e ---------------------------------------------|
B ---------------------------------------------|
G -----        Repeat first verse         -----|
D -----                                   -----|
A ---------------------------------------------|
E ---------------------------------------------|

(2:05) I know I lose track of you sometimes, I lose track of myself sometimes.

e ---------------------------------------------|
B ---------------------------------------------|
G -----7h9^--------7---------------------------|
D -------------9-------------------------------|
A ---------------------------------------------|
E -7-------------------------------------------|

End (2:49)
e ---------------------------------------------|
B ---------------------------------------------|
G ---------------------------------------------|
D ---------------------------------------------|
A ---------------------------------------------|
E -7-----------5-------------------------------|

(2:53) Sick instrumental

e ---------------------------------------------|
B ---------------------------------------------|
G ---------------------------------------------|
D ---------9-----------------------------------|
A ------------10---9-------7---9---------------|
E -7------------------------------10-----------|

Sometimes..
e ---------------------------------------------|
B ---------------------------------------------|
G ---------------------------------7-----------|
D ---------9---------------------------9-------|
A ------------10---9-------7---9---------------|
E -7-------------------------------------------|

(3:18) I'd take this I guess over the other one. The sun sets on the things that I 
have done, they acted too quick.

e ---------------------------------------------|
B ---------------------------------------------|
G ---------7-----------------------------------|
D -------------9---7-----------7---------------|
A ------------------------10-------------------|
E 10------------------------------10-----------|

(3:28) Some things need to remain still. It's that you shouldn't, you couldn't.

e ---------------------------------------------|
B ---------------------------------------------|
G -4-4-4-4-7-7-7-7-4-4-4-4-7-7-7-7-------------|
D ---------------------------------------------|
A -2-2-2-2-5-5-5-5-2-2-2-2-5-5-5-5-------------|
E ---------------------------------------------|

e ---------------------------------------------|
B ---------------------------------------------|
G ---------------------------------------------|
D -5-5-5-5-5-5-5-5-4-4-4-4-2-4-2-0-------------|
A -5-5-5-5-5-5-5-5-4-4-4-----------------------|
E -3-3-3-3-3-3-3-3-2-2-2-----------------------|

(3:55) Instrumental ptII

e ---------------------------------------------|
B ---------------------------------------------|
G -4-4-4-4---------4-4-4-4---------------------|
D ---------------------------------------------|
A -2-2-2-2---------2-2-2-2---------------------|
E ---------------------------------------------|

e ---------------------------------------------|
B ---------------------------------------------|
E ---------------------------------------------|
G -5-5-5-5---------4-4-4-4-2-4-2-0-------------|
D -5-5-5-5---------4-4-4-----------------------|
A -3-3-3-3---------2-2-2-----------------------|

(4:11) Don't drink from this fountain, you are liable to drown, and I might ask this 
or twice.

e ---------------------------------------------|
B ---------------------------------------------|
G -4-4-4-4---------4-4-4-4----------4-4--------|
D ---------------------------------------------|
A -2-2-2-2---------2-2-2-2----------2-2--------|
E ---------------------------------------------|

e ---------------------------------------------|
B ---------------------------------------------|
G ---------------------------------------------|
D -5-5-5-5---------4-4-4-4----------4-4--------|
A -5-5-5-5---------4-4-4-4----------4-4--------|
E -3-3-3-3---------2-2-2-2----------2-2--------|

(4:20) What is this? This, my gaping mound of wires.

e ---------------------------------------------|
B ---------------------------------------------|
G -4-4-------------4-4--------------4-4--------|
D ---------------------------------------------|
A -2-2-------------2-2--------------2-2--------|
E ---------------------------------------------|

e ---------------------------------------------|
B ---------------------------------------------|
G ---------------------------------------------|
D -4-4-------------4-4--------------4-4--------|
A -4-4-------------4-4--------------4-4--------|
E -2-2-------------2-2--------------2-2--------|

Last (4:49)
e ---------------------------------------------|
B ---------------------------------------------|
G ---------------------------------------------|
D -4-4-------------4-4-------------------------|
A -4-4-------------4-4-------------------------|
E -2-2-------------2-2-------------------------|

This family blood it runs through me thin as oil in water
My family blood cut through me clear like teeth made of sauter
My childhood passed through me smooth like the throat meeting water
A dentist sighs, "son, we're going to have to take your last good set of teeth."
Someone once said, "why do you try to speak when you don't have a mouth?"
You could have been fine, you could have made it
You could have licked the lips of god but you chose the pavement
Just lay there with your mouth wired shut
You went too far out on a limb and you fell
You know your track record shows that it's full of holes, so the next time you try to 
your mouth, just don't
Why do you let them count your teeth while you sleep
When they take a few and parade them around like they know you
I want to be able to stick my fist in your mouth and feel all 32
You look so beautiful with a full set of teeth and a great mouth to chew
I know I lose track of you sometimes
I lose track of myself sometimes
I lose track of my grammar sometimes
Dot dot comma dot
You know I try things six times
One is for every shot
How many triggers do we got left in the chamber?
What's to remember?
Lost family
Lost friends
Loose ends untied
The years loop themselves and run over and over again
You need to buy a piece of this land now, boy
It's running out quick
I'd take this I guess over the other one
The suns sets on things that I should have done
They acted too quick
Some things need to remain still
It's that you shouldn't, you couldn't
It could weigh down your eyes
As all these walls start to sing, you know you shouldn't, you couldn't
And then the gums start to bleed
Don't drunk from this fountain, you are liable to drown, and I might ask this once or twice
This is all ringing because you know you shouldn't
You couldn't
So my ears start to bleed
I might ask this once or twice
What is this?
This, my gaping mound of wires
My flapping speakerbox
Human connection of disconnection
Why exist?
Why take the risk?
Another day brings you closer to your last hour
Tap to rate this tab
 
# A B C D E F G H I J K L M N O P Q R S T U V W X Y Z