Song name
# A B C D E F G H I J K L M N O P Q R S T U V W X Y Z

These Arms Are Snakes - Horse Girl tab

Intro
e|------------------------------------|
B|-------------------------------6p0--|
G|--3p0-----------3---p0--------------|
D|------5p0-3h5p0--------5p0-3h5------|
A|------------------------------------|
E|------------------------------------|

0:25 play this for a bit
e|----------------------------|
B|-6~~------------------------|
G|-4~~------------------------|
D|----------------------------|
A|----------------------------|
E|----------------------------|

0:38
e|----------------------------|
B|----------------------------|
G|----------------------------|
D|5-------------3-------------|
A|5-----1-------3-----1-------|
E|3-------3p1---1-------3p1---|

e|------------------------------------|
B|-------------------------------8p0--|
G|--7p0-----------7---p0--------------|
D|------9p0-8h9p0--------9p0-8h9------|
A|------------------------------------|
E|------------------------------------|

hold
e|----------------------------|
B|-8~~------------------------|
G|----------------------------|
D|----------------------------|
A|----------------------------|
E|----------------------------|

[bass break]

e|----------------------------|
B|----------------------------|
G|----------------------------|
D|5-------------3-------------|
A|5-----1-------3-----1-------|
E|3-------3p1---1-------3p1---| x4

e|----------------------|-------------------|
B|----------------------|---0---0---0---0---|
G|----------------------|---3---3---3---3---|
D|5-------------3-------|-------------------|
A|5-----1-------3-------|-------------------|
E|3-------3p1---1-------|-------------------|

e|----------------------------|
B|----------------------------|
G|----------------------------|
D|5-------------3-------------|
A|5-----1-------3-----1-------|
E|3-------3p1---1-------3p1---|

e|----------------------|----------------------|
B|----------------------|---0---0---0---0---0--|
G|----------------------|---3---3---3---3---3--|
D|5-------------3-------|----------------------|
A|5-----1-------3-------|----------------------|
E|3-------3p1---1-------|----------------------|

e|----------------------------|
B|----------------------------|
G|----------------------------|
D|5-------------3-------------|
A|5-----1-------3-----1-------|
E|3-------3p1---1-------3p1---|

e|----------------------|-------------------|
B|----------------------|---0---0-----------|
G|----------------------|---3---3-----------|
D|5-------------3-------|------------pause--|
A|5-----1-------3-------|-------------------|
E|3-------3p1---1-------|-------------------|


e|----------------------------|
B|----------------------------|
G|----------------------------|
D|5-------------3-------------|
A|5-----1-------3-----1-------|
E|3-------3p1---1-------3p1---| x4

Repeat (upstrokes)
e|------------------|
B|---0---0---0---0--|
G|---3---3---3---3--|
D|------------------|
A|------------------|
E|------------------|

e|---------------------------------|
B|----------------------------6p0--|
G|--3~~------------3---p0----------|
D|------5~~--3~~----------3h5------|
A|---------------------------------|
E|---------------------------------|

e|---------------------------------|
B|----------------------------8p0--|
G|--7~~------------7---p0----------|
D|------9~~--8~~----------8h9------|
A|---------------------------------|
E|---------------------------------|

[This riff now has octaves, or an octaver on top of it or something.]
e|---------------------------------|
B|----------------------------6p0--|
G|--3~~------------3---p0----------|
D|------5~~--3~~----------3h5------|
A|---------------------------------|
E|---------------------------------|

e|----------------------------|
B|-8~~------------------------|
G|----------------------------|
D|----------------------------|
A|----------------------------|
E|----------------------------|
end.
Tap to rate this tab
 
# A B C D E F G H I J K L M N O P Q R S T U V W X Y Z