Guitaretab - guitar tabs
Song name
# A B C D E F G H I J K L M N O P Q R S T U V W X Y Z

These Arms Are Snakes - Angelas Secret tab

These Arms Are Snakes - Angela's Secret

pretty simple song, the rythms are sometimes akward to learn, but it is fun
drop D tuning

hope you like it
                               -Shane


Piano: (0:00)
e|-------------------|
B|-------------------|
G|-------------------|x12
D|-------------------|
A|-------------3-----|
D|---5-7-5-8-5---5---|


Intro: (0:18)
E|---------------------|
B|---------------------|
G|---------0-3---0-----|
D|-----5-5-----0---0---|
A|-----5-5-------------|
D|---0-5-5-------------|

E|---------------------|
B|---------------------|
G|-----0---0-3---0-----|x7
D|---0---0-----0---0---|
A|---------------------|
D|---------------------|

E|---------------------------------|
B|---------------------------------|
G|-----0---0-3---------0-3---------|
D|---0---0-----0-5-5-0-----0-5-5---|
A|---------------5-5---------5-5---|
D|---------------5-5---------5-5---|


Piano: (0:34)
e|-------------------|
B|-------------------|
G|-------------------|x12
D|-------------------|
A|-------------3-----|
D|---5-7-5-8-5---5---|


Verse: (0:51) 
E|-----10b---7b----11b----8b---|
B|-----------------------------|
G|---9b----7b---10b----8b------|x2
D|-----------------------------|
A|-----------------------------|
D|-----------------------------|


Heavy Riff: (1:04)
E|-----------------|
B|-----------------|
G|-----------------|x8
D|---5-5-----------|
A|---5-5-----------|
D|---5-5-0-5-8-0---|

[ Tab from: http://www.guitaretab.com/t/these-arms-are-snakes/64349.html ]
Bridge: (1:16)
E|---------|
B|---------|
G|---5-0---|
D|---------|
A|---------|
D|---------|

E|---------------------|
B|---------------------|
G|---0-5-0-5-8-0-5-0---|x15
D|---------------------|
A|---------------------|
D|---------------------|


Filler: (1:41)
E|-----------------13-0---|
B|-----------10-11--------|
G|---10-12-0------0-------|x16
D|------------------------|
A|------------------------|
D|------------------------|

E|------------------|
B|------------------|
G|---5-5/~12--------|x4
D|---5-5/~12-12-9---|
A|---3-3/~10--------|
D|------------------|

E|-----------------13-0---|
B|-----------10-11--------|
G|---10-12-0------0-------|x23
D|------------------------|
A|------------------------|
D|------------------------|

E|----------------------|
B|-----------111011-----|
G|---10-12-0-------12---|
D|----------------------|
A|----------------------|
D|----------------------|


Piano: (2:55)
e|-------------------|
B|-------------------|
G|-------------------|x12
D|-------------------|
A|-------------3-----|
D|---5-7-5-8-5---5---|


Verse: (3:07) 
E|-----10b---7b----11b----8b---|
B|-----------------------------|
G|---9b----7b---10b----8b------|x2
D|-----------------------------|
A|-----------------------------|
D|-----------------------------|


Heavy Riff: (3:20)
E|-----------------|
B|-----------------|
G|-----------------|x8
D|---5-5-----------|
A|---5-5-----------|
D|---5-5-0-5-8-0---|

E|----------|
B|----------|
G|----------|
D|---5-5~---|
A|---5-5~---|
D|---5-5~---|
Related for Angelas Secret tab
Angelas Secret chords by These Arms Are Snakes