Song name
# A B C D E F G H I J K L M N O P Q R S T U V W X Y Z

These Arms Are Snakes - Diggers Of Ditches Everywhere tab

------------------------------------------------------------------------------
			     Diggers Of Ditches-These Arms Are Snakes
-------------------------------------------------------------------------------
Tabbed by: Calvin Ramsey
Email: IndieRocker45@msn.com

Tuning: Normal

This is like one of the coolest guitar intros ive ever heard. Also this is my first tab 
bear with me.

          Intro
e|---------------------------------------------------------------------------|
B|---------------------------------------------------------------------------|
G|---------------------------------------------------------------------------|
D|---------------------------------------------------------------------------|
A|-----------9---------------------------------------------------------------|
E|---10p7-7-----7-7-7----5----3h7-7p0---0h2-2p0------------------------------|

       1st Part of Verse x8
e|---------------------------------------------------------------------------|
B|-------------------10---------------10-------------------------------------|
G|----------------------11--------------11-----------------------------------|
D|----------9------------------9---------------------------------------------|
A|--------9---9------------------9-------------------------------------------|
E|---------------------------------------------------------------------------|

        2nd Part of Verse x8
e|---------------------------------------------------------------------------|
B|---------------------------------------------------------------------------|
G|---------------------------------------------------------------------------|
D|---------------------------------------------------------------------------|
A|-----------9---------------------------------------------------------------|
E|---10p7-7-----7-7-7----5----3h7-7p0---0h2-2p0------------------------------|

Srry this is all i could figure out, pretty much just play the Intro 8 times, Then just 
from the first part of the verse 8 times to what you played in the intro 8 times. Have Fun.

| /  slide up
| \  slide down
| h  hammer-on
| p  pull-off
| ~  vibrato
| +  harmonic
| x  Mute note
===============================================================================
Tap to rate this tab
 
# A B C D E F G H I J K L M N O P Q R S T U V W X Y Z