These Green Eyes - Watch The Lights Go Out tab

These Green Eyes
Watch the Lights Go Out
House of Glass

Cap 2
All notes relative to capo

    
E||----------------------|----------------------|----------------------|
B||-----------------3----|----------------------|-------3--------------|
G||------------4---------|--4-------------------|--4---------4---------|
D||-------4--------------|-------4---------4----|-----------------4----|
A||--2-------------------|------------2---------|----------------------|
E||----------------------|----------------------|----------------------|
 
 

----------------------|----------------------|----------------------|
-----------------3----|----------------------|-------2--------------|
------------4---------|--4-------------------|--4---------4---------|
-------4--------------|-------4---------4----|-----------------4----|
--0-------------------|------------0---------|----------------------|
----------------------|----------------------|----------------------|
 
 
  
-----------------2----|----------------------|----------------------|
----------------------|--3-------------------|-------2--------------|
------------4---------|-------4--------------|--4---------4---------|
-------4--------------|-----------------4----|-----------------4----|
--2-------------------|------------2---------|----------------------|
----------------------|----------------------|----------------------|
 
       
-----------------2----|--3--------------2----|------------||
----------------------|-------3----2---------|--3----2----||
------------4---------|----------------------|------------||
-------4--------------|----------------------|------------||
--2-------------------|----------------------|------------||
----------------------|----------------------|------------||
Tap to rate this tab
 
# A B C D E F G H I J K L M N O P Q R S T U V W X Y Z