Song name
# A B C D E F G H I J K L M N O P Q R S T U V W X Y Z

These Hearts - Quitting While Youre Behind tab

 These Hearts is an epic band, but there's only one tab on here for them, so I decided
to tab out my favorite These Hearts song, Quitting While You're Behind. It wasn't
particularly hard to tab, but the palm mutes were very annoying to figure out, so they 
might be a little off. The rythm may be off a little bit, too. This is a very accurate tab,
though. This is the tab for the rythm guitar. I haven't quite figured out the Lead gtr...

 p - pull off
 . - palm mute
 ~ - let ring

Tuning: Standard(E A D G B e)

Intro            Riff 1 [0:00-0:05]
e|----------------------------------------|
B|----------------------------------------|
G|----------------------------------------|
D|7-00000-000-00000--3-5-00000-000-00000--|
A|7-00000-000-00000--3-5-00000-000-00000--|
E|5-00000-000-00000--1-3-00000-000-00000--|
    ..... ... .....      ..... ... .....

Intro Part 2   Riff 2 [0:06-0:11]
e|--------------------------------------------|
B|--------------------------------------------|
G|--------------------------------------------|
D|9-7-00000-000-00000--3-5-00000-000-0-0-0-0--|
A|9-7-00000-000-00000--3-5-00000-000-0-0-0-0--|
E|7-5-00000-000-00000--1-3-00000-000-0-0-0-0--|
      ..... ... .....      ..... ... . . . .
 Repeat Riff 1 and Riff 2 once more.

 Riff 3 [0:24-0:26]
e|-----------------------------|
B|-----------------------------|
G|-----------------------------|
D|7-0-0-0-0-000-0-0-0-0-00000--|
A|7-0-0-0-0-000-0-0-0-0-00000--|
E|5-0-0-0-0-000-0-0-0-0-00000--|
    . . . . ... . . . . .....

 Riff 4 [0:27-0:29]
e|------------------------------|
B|------------------------------|
G|------------------------------|
D|3-5-0-0-0-0-000-0-0-0-0-00000-|
A|3-5-0-0-0-0-000-0-0-0-0-00000-|
E|1-3-0-0-0-0-000-0-0-0-0-00000-|
      . . . . ... . . . . .....

Repeat Riff 3 and Riff 4 once more

 Riff 5 [0:35-0:47]
e|-------------------------------------------|
B|-------------------------------------------|
G|-------------------------------------------|
D|0000-3333-444444-777777-00000---4~~7-7777--|
A|0000-3333-444444-777777-00000---4~~7-7777--|
E|0000-1111-222222-555555-00000---2~~5-5555--|
  ....                    .....

 Riff 6 [0:48-0:59]
e|-----------------------------------|
B|-----------------------------------|
G|-----------------------------------|(x2)
D|9-999-11-11-11-11-11--9-999-7-7777-|
A|9-999-11-11-11-11-11--9-999-7-7777-|
E|7-777--9--9--9--9--9--7-777-5-5555-|

 Riff 7 [1:00-1:25]
e|-----------------|
B|-----------------|
G|-----------------|(x4)
D|7-----5----3-----|
A|7(x16)5(x8)3(x16)|
E|5-----3----1-----|

 Riff 8 [1:26-1:37]
e|-----|
B|-----|
G|-----|(x4)
D|55-3~|
A|55-3~|
E|33-1~|

 Riff 9 [1:38-1:53]
e|------------------------------------------------|
B|------------------------------------------------|
G|------------------------------------------------|
D|----0--0-----0--0--7-3-7-----0--0-----0--7-9-7--|
A|----0--0-----0--0--7-3-7-----0--0-----0--7-9-7--|
E|2p0-0--0-2p0-0--0--5-1-5-2p0-0--0-2p0-0--5-7-5--|
      .  .     .  .            .  .

 Riff 10 [1:54-2:03]
e|-----------------------------------------------|
B|-----------------------------------------------|
G|-----------9999---11-11-11-11-11--12-12-11-9---|
D|3~~~00000--9999---11-11-11-11-11--12-12-11-9---|
A|3~~~00000--7777----9--9--9--9--9--10-10--9-7---|
E|1~~~00000--------------------------------------|
      .....

 Riff 11 [2:46-2:58]
e|------------------------------------------------|
B|------------------------------------------------|
G|------999-11-11-11-11-11------------------------|
D|00000-999-11-11-11-11-11-00-555---777777-00000--|
A|00000-777--9--9--9--9--9-00-555---777777-00000--|
E|00000--------------------00-333---555555-00000--|
  ..... ...  .  .  .  .  . ..              .....

 Riff 12 [2:18-2:21]
e|---------------|
B|---------------|
G|---------------|
D|555555-777777--|
A|555555-777777--|
E|333333-555555--|

 Repeat Riff 6 twice, then repeat Riff 7 twice

 Riff 13 [2:46-2:58]
e|---------------------|
B|---------------------|
G|---------------------|(x2)
D|7777--7777--7--5~~3~~|
A|7777--7777--7--5~~3~~|
E|5555--5555--5--3~~1~~|

 Repeat Riff 1 and Riff 2 twice more



 Again, I'm 99% sure this is an accurate tab.

Cheers!

--Daniel T.
Tap to rate this tab
# A B C D E F G H I J K L M N O P Q R S T U V W X Y Z