Song name
# A B C D E F G H I J K L M N O P Q R S T U V W X Y Z

These Kids Wear Crowns - Jumpstart tab

Jumpstart - These Kids Wear Crowns

Intro/Verse 1
e|-------------------------|
B|-------------------------|
G|--11-9-11-9-11-13-11-9---| Keep playing until he finishes singing “turn it up”
D|-------------------------|
A|-------------------------|
E|-------------------------|
    .  . .  . .  .  .  .

“Loud..”
e|-----------------------------------------------------------|
B|-----------------------------------------------------------|
G|-----------------------------------------------------------|
D|-777777777777777777777777777777777777777777777777777-9999--|
A|-777777777777777777777777777777777777777777777777777-9999--|
E|-----------------------------------------------------------|
   ................................................... ....

Pre-chorus
e|-----------------------------------|
B|-----------------------------------|
G|-----------------------------------|
D|-777777777777-9999-777777777-------|
A|-777777777777-9999-777777777-------|
E|-----------------------------------|
   ............ .... .........

Chorus
e|-----------------------------------------------|
B|-----------------------------------------------|
G|-99999999-11111111-13131313--------------------|
D|-99999999-11111111-13131313-777777777777-9999--|
A|-77777777-9-9-9-9--11111111-777777777777-9999--|
E|----------------------------555555555555-7777--|
                                                    X2
e|-----------------------------------------------|
B|-----------------------------------------------|
G|-----------------------------------------------| 
D|-1111111111111111-14141414-7777777777777777----|
A|-1111111111111111-14141414-7777777777777777----|
E|-9-9-9-9-9-9-9-9--12121212-5555555555555555----|

Post chorus
e|--------------------------------------|
B|-12-12-12-12-12-----------------------|
G|-x--x--x--x--x--11/13--11/13----------| x4
D|-9--9--9--9--9--x--x---x--x-----------|
A|----------------9-/11--9-/11----------|
E|--------------------------------------|

Repeat verse and pre chorus

Repeat chorus and post chorus

Repeat intro for bridge then chorus and post chorus till end

This is tabbed from the vid of Joe playing it: http://www.youtube.com/watch?
v=Qkd1imcU6q8&feature=related

Enjoy!
Tap to rate this tab
# A B C D E F G H I J K L M N O P Q R S T U V W X Y Z