Guitaretab - guitar tabs
Song name
# A B C D E F G H I J K L M N O P Q R S T U V W X Y Z

These New Puritans - Elvis tab

ELVIS

Bass:
|-------------------|
|-------------------|
|--4444444444444444-|
|-------------------|
Etc.

Chorus:
Bass
|-------------------------------------|
|-------------------------------------|
|--44-4-44-66-6-66-77-7-77-77-7-77----|
|-------------------------------------|

Guitar:
|------------------------------------|
|------------------------------------|
|--99-9-99-88-8-88-44-4-44-44-4-44---|
|--xx-x-xx-xx-x-xx-xx-x-xx-xx-x-xx---|
|-/77-7-77-66-6-66-22-2-22-22-2-22---|
|------------------------------------|
[ Tab from: http://www.guitaretab.com/t/these-new-puritans/100692.html ]
Variation (the synthesizer and Jack play the last chords an octave higher:)
|----------------------------------------|
|----------------------------------------|
|--99-9-99-88-8-88-44-4-44-1616-16-1616--|
|--xx-x-xx-xx-x-xx-xx-x-xx--x-x--x--x-x--|
|-/77-7-77-66-6-66-22-2-22-1414-14-1414--|
|----------------------------------------|

Second Verse:
The chord Jack plays:
First      second time
|--4--------xxxx4---|
|--5--------xxxx5---|
|--6--------xxxx6---|
|-------------------|
|-------------------|
|-------------------|

Outro (not sure about the last accord  if it is an other or the same):
Bass (same as intro till Jack starts singing, then):
|-------------------|
|-------------------|
|--44444-2-44444-2--|
|-------------------|

Guitar:
|-------------------|
|-------------------|
|-9-98-84-4---------|
|-x-xx-xx-x---------| few times when he starts singing just last Chord(B)
|-7-76-62-2---------|
|-------------------|


Intro
Verse (just bass)
Chorus
Verse (just bass + Jack chords)
Chorus
Outro
Related for Elvis tab