Song name
# A B C D E F G H I J K L M N O P Q R S T U V W X Y Z

They Come In Waves - I tab

Song: I
Band: They Come In Waves
Album: Transcience

Drop C# tuning.

---------------------------------------|
---------------------------------------| play
-----7-------7------5-4------5-4-------| four
--5-----5-4-----4-2------2-5------2/5--| times
---------------------------------------|
---------------------------------------|

---------|
---------|
---------|
--5\4-4--|
---------|
---------|


G1:
-----------------------------------|
-----------------------------------|
-----------------------------------|
--5------7-4------5-2-------0------|
--5------7-4------5-2-------0------|
--5------7-4------5-2-------0------|

G2
-------5---------3---------2----10---9--|
--8----8----7----7----5----5----x----x--|
--7----7----6----6----4----4----7----7--|
--------------------------------7----7--|
----------------------------------------|
----------------------------------------|


http://www.myspace.com/theycomeinwaves
Tap to rate this tab
 
# A B C D E F G H I J K L M N O P Q R S T U V W X Y Z