Song name
# A B C D E F G H I J K L M N O P Q R S T U V W X Y Z

They Might Be Giants - Boss Of Me tab

Boss Of Me by The Migth Be Giants ( Malcolm Theme Song )
Tab by Sik666
It's the Keyboard part, retranscribed for guitar

Intro
|--------------------------------------------------------|
|--------------------------------------------------------|
|------------------------7--5--4--2---5--4--2--0---------|
|--9---7---10---9----------------------------------------|
|--------------------------------------------------------|
|--------------------------------------------------------|

Refrain x2
|-----------------------------------------------------------|
|-------------3---------------3---------------3--1-0-1--0---|
|-4-4-2-4-2-4-----4-4-2-4-2-4-----4-4-2-4-2-4-------------2-|
|-----------------------------------------------------------|
|-----------------------------------------------------------|
|-----------------------------------------------------------|

Outro
|----------------------|
|----------------------|
|----------2-----2/4---|
|------5---------------|
|--5-------------------|
|----------------------|
Tap to rate this tab
 
# A B C D E F G H I J K L M N O P Q R S T U V W X Y Z