Song name
# A B C D E F G H I J K L M N O P Q R S T U V W X Y Z

They Might Be Giants - Seven Days Of The Week tab

This is the horns part.
e------------------------------------------------------------------------|
b------------------------------------------------------------------------|
g------------------------------------------------------------------------|
d---0-4-0-2-4-2-0------0-4-0-2-0------0-4-0-2-4-2-0---2-2-2-2-0---0-2----|
a-0---------------2--0-----------2--0---------------2-----------4--------|
e------------------------------------------------------------------------|

e------------------------------------------------------------------------|
b------------------------------------------------------------------------|
g------------------------------------------------------------------------|
d---0-4-4-0-2-0------4-4-2-2-0------4-4-4-2-0-2-0------4-4-4-4-2-2-0---0-|
a-0-------------2--0------------0-0---------------2--0---------------0---|
e------------------------------------------------------------------------|

by Stefan Reed


A very simple song off podcast 6A, and before that the american folk tradition. I'm 
80% comfortable with this tabbing of it, so if anyone has corrections, go right ahead.

A
Oh no, no, I never go to work.
A
Oh no, no, I never go to work.
A
Oh no, no, I never go to work.
A
Oh no, no, I never go to work.

A F#m
On Mondays, I never go to work.
A F#m
On Tuesdays, I stay at home.
A F#m
On Wednesdays, I never feel inclined.
Bm E
Work is the last thing on my mind.

A F#m
On Thursdays, it's a holiday!
A F#m
And Fridays I detest.
A F#m
Oh it's much too late on a Saturday,
A E A
And Sunday is the day of rest.


Repeat that pattern for the rest of the song

 -- Sean St.
Tap to rate this tab
 
# A B C D E F G H I J K L M N O P Q R S T U V W X Y Z