Song name
# A B C D E F G H I J K L M N O P Q R S T U V W X Y Z

They Might Be Giants - Boss Of Me tab

-------------------------------------------------------------------------------
                             Boss Of Me - The Might Be Giants
-------------------------------------------------------------------------------
Tabbed by:Nikola96

Tuning: Standard Tuning
 
Intro:
 
e|--8---8---8---8-----10---10---10---10------------------------8----8--------|
B|--8---8---8---8-----10---10---10---10-----8---8---8---8------8----8--------|
G|--9---9---9---9-----11---11---11---11-----9---9---9---9------9----9--------|
D|-10--10--10--10-----12---12---12---12-----9---9---9---9-----10---10--------|
A|------------------------------------------7---7---7---7--------------------|
E|---------------------------------------------------------------------------|

Chorus:

e|---------------------------------------------------------------------------|
B|---------------------------------------------------------------------------|
G|---------------------------------------------------------------------------|
D|-5-------7-------10-------12-----------------------------------------------|
A|-5--15x--7--15x--10--15x--12--15x----2Times--------------------------------|
E|-3-------5--------8-------10-----------------------------------------------|

End:

e|---------------------------------------------------------------------------|
B|---------------------------------------------------------------------------|
G|---------------------------------------------------------------------------|
D|-5-(5)---------------------------------------------------------------------|
A|-5-(5)---------------------------------------------------------------------|
E|-3-(3)---------------------------------------------------------------------|

************************************

| /   slide up
| \   slide down
| h   hammer-on
| p   pull-off
| ~   vibrato
| +   harmonic
| x   Mute note
| b   Bend
| pb  Pre-bend
| br  Bend release
| pbr Pre-bend release
| brb Bend release bend

************************************
Tap to rate this tab
 
# A B C D E F G H I J K L M N O P Q R S T U V W X Y Z