Song name
# A B C D E F G H I J K L M N O P Q R S T U V W X Y Z

They Might Be Giants - Dig My Grave tab

Arttist: They Might Be Giants
Song Dig my Grave
Album: Apollo 18

intro
E--------5--------------------|--------5-------------------|
B--3h5------3---5-----3-------|--5--------3---5-----3------|
G-------------------5---------|-------------------5--------|
D-----------------------------|----------------------------|
A-----------------------------|----------------------------|
E-----------------------------|----------------------------|

Verse ( said twice ):
("DIg my grave" said twice)
  A   C   G    D
E-------------------
B-------------------
G-----55------77----
D-77--55--55--77---- 6x
A-77--33--55--55----
E-55------33--------  

B
Everytime I look in in your eyes I see Saint Peter waive

Verse ( Dig my grave ):
 ("Dig my grave" said twice)
  A   C   G    D
E-------------------
B-------------------
G-----55------77----
D-77--55--55--77---- 4x
A-77--33--55--55----
E-55------33--------  

Hold an (A) durring the solo

B
Everytime you call my name I hear the angels say...

Verse ( Faster and faster till the end ):
 (" Dig my grave" said five timess)
  A   C   G    D
E-------------------
B-------------------
G-----55------77----
D-77--55--55--77---- 8x
A-77--33--55--55----
E-55------33--------
Tap to rate this tab
# A B C D E F G H I J K L M N O P Q R S T U V W X Y Z