Song name
# A B C D E F G H I J K L M N O P Q R S T U V W X Y Z

They Might Be Giants - Anothet First Kiss tab

Artist: They Might be Giants
Title: Another first kiss 
Album: Mink Car

Intro     
A   D    

Verse:
| C G F G | C G F G | C G F G | C G F G |
Chorus
F G C Em | F G C Em |
F G Am D | F G C Em |

Fill with intro chords ( A and D )

Bridge
-----------------------2----------|
-------5-2---------------2--------|
--2-4-2---4-2----2-4-2-----4-2----|
----------------------------------|
----------------------------------|
----------------------------------|

Verse:
| C G F G | C G F G | C G F G | C G F G |
Chorus
F G C Em | F G C Em |
F G Am D | F G C Em |

Solo ( overlappped with A and D chords ):
-----------------------2----------------------------------------------|
-------5-2---------------2--------------5-2---------------------------|
--2-4-2---4-2----2-4-2-----4-2-----2-4-2---4-2---2--1----1-2-1--------|
-------------------------------------------------------4-------4-2----| 2x
----------------------------------------------------------------------|
----------------------------------------------------------------------|
Verse:
| C G F G | C G F G | C G F G | C G F G |
Chorus
F G C Em | F G C Em |
F G Am D | F G C Em |
Chorus
F G C Em | F G C Em |
F G Am D | F G C Em |
Tap to rate this tab
 
# A B C D E F G H I J K L M N O P Q R S T U V W X Y Z