Song name
# A B C D E F G H I J K L M N O P Q R S T U V W X Y Z

They Might Be Giants - Fibber Island tab

Song: Fibber Island
Artist: They Might Be Giants
Album: No!
-------------------------------------------------------

I have expirimented with different ways to play this,
but this seems to me to be the simplest, even if the
tuning is a little wierd. Any questions, problems, or
comments, email me at IKMA_87@msn.com

-------------------------------------------------------

Capo, 2nd Fret
All tabs relative to capo
Chorus has no guitar
h = hammer on

-------------------------------------------------------
Intro:

  D|-------------2-------------------2-------|
  B|---------3-------3-----------3-------3---|
  G|---0h2-----2---2---2---oh2-----2---2---2-|
  D|-0-----0-------------0-----0-------------|
  B|-----------------------------------------|
  E|-----------------------------------------|

Verse:

  D|-------------2-------------------2-------|
  B|---------3-------3-----------3-------3---|
  G|---0h2-----2---2---2---oh2-----2---2---2-|
  D|-0-----0-------------0-----0-------------|
  B|-----------------------------------------|
  E|-----------------------------------------|

    Here on Fibber Island


  D|-------------2-------------------2-------|
  B|---------2-------2-----------2-------2---|
  G|---0h2-----2---2---2---oh2-----2---2---2-|
  D|-----------------------------------------|
  B|-2-----2-------------2-----2-------------|
  E|-----------------------------------------|

    We strum rubber guitars

  D|-------------2-------------------2-------|
  B|---------3-------3-----------3-------3---|
  G|---0h2-----2---2---2---oh2-----2---2---2-|
  D|-----------------------------------------|
  B|-0-----0-------------0-----0-------------|
  E|-----------------------------------------|

    Our friends live on Mars

  D|-------------2-------------------2-------|
  B|---------3-------3-----------3-------3---|
  G|---0h2-----2---2---2---oh2-----2---2---2-|
  D|-0-----0-------------0-----0-------------|
  B|-----------------------------------------|
  E|-----------------------------------------|

Outro:
  D|-------|
  B|-------|
  G|-------|
  D|-------|
  B|-----6-|
  E|-7-9---|

  D|-------------2-------|
  B|---------3-------3---|
  G|---0h2-----2---2---2-|
  D|-0-----0-------------|
  B|---------------------|
  E|---------------------|
Tap to rate this tab
# A B C D E F G H I J K L M N O P Q R S T U V W X Y Z