Song name
# A B C D E F G H I J K L M N O P Q R S T U V W X Y Z

They Might Be Giants - Cant Keep Johnny Down tab

-------------------------------------------------------------------------------
         Canít Keep Johnny Down Ė They Might Be Giants
-------------------------------------------------------------------------------
Tabbed by:switchfootfan21
E-mail:theinferiorshrub@gmail.com

Tuning:

e|-------------15-----------14-------------15--------------------------------|
B|----------15-----------15-------------17---------19------------------------|
G|------16-----------14--------------17---------19---------------------------|
D|---17----------16---------------17---------19------------------------------|
A|-----------------------------15--------------------------------------------|
E|---------------------------------------------------------------------------|

You can also play it like this: Either way sounds fine to me

e|-------------15-----------14-------------15--------------------------------|
B|----------15-----------15-------------17---------15------------------------|
G|------16-----------14--------------17---------14---------------------------|
D|---17----------16---------------17---------16------------------------------|
A|-----------------------------15--------------------------------------------|
E|---------------------------------------------------------------------------|
Tap to rate this tab
# A B C D E F G H I J K L M N O P Q R S T U V W X Y Z