Song name
# A B C D E F G H I J K L M N O P Q R S T U V W X Y Z

They Might Be Giants - Another First Kiss tab

This is my first tab, so please let me know how I do.
Standard Tuning (E A D G B E)


Intro:
A D A D


Verse 1:
C    G               F       G
I'm asleep but she's talking to me
C                G             F        G
  She's walking 'round wearing all of my clothes
   C        G      F        G
As she runs out of things to say
    C        G       F     G
And grabs my coat to walk away


Chorus:
F            G          C      E
  How bout another first kiss, she said
F            G          C      E
  How bout another first kiss, I said
F          G          Am        D
  I want another first kiss like this
F            G       C         E
  How bout another first kiss.


Solo 1:
   E         A                       D
----------------------12-9--------------------14------------|
-------------10-12-10------12-10-----10-12-10----14-12-10---|
---1-2-4-1-2------------------------------------------------|
------------------------------------------------------------|
------------------------------------------------------------|
------------------------------------------------------------|


Verse 2:
C       G               F    G
  Other people were too sentimental
C            G         F         G
  And always worrying about their hair
    C        G       F     G
Got tired of wasting all my time
    C       G    F      G
Now I'm not worrying at all


Chorus:
F            G          C      E
  How bout another first kiss, she said
F            G          C      E
  How bout another first kiss, I said
F          G          Am        D
  I want another first kiss like this
F            G       C         E
  How bout another first kiss.


Solo 2:
   E         A                       D
----------------------12-9--------------------14------------|
-------------10-12-10------12-10-----10-12-12----14-12-10---|
---1-2-4-1-2------------------------------------------------|
------------------------------------------------------------|
------------------------------------------------------------|
------------------------------------------------------------|
   A                   E                          F#m
------------12-9-------------------------------------------12-9---------|
---10-12-10------12-10-10----------10-------------10-12-10------12-10---|
--------------------------13-11-13----13-11-9---------------------------|
------------------------------------------------------------------------|
------------------------------------------------------------------------|
------------------------------------------------------------------------|
   D                       A                   E
------------14----------------------12-9-------------12------------12---|
---10-12-10----14-12-10----10-12-10------12-10-10-12----10-9-10-12------|
------------------------------------------------------------------------|
------------------------------------------------------------------------|
------------------------------------------------------------------------|
------------------------------------------------------------------------|


Verse 3:
C           G            F      G
  You could tell me we belong together
C             G          F        G
  And I could tell you belong with me
    C         G      F        G
But we've run out of things to say
    C        G     F  Fm
And we'll be happy anyway, so


Chorus:
F            G          C      E
  How bout another first kiss, she said
F            G          C      E
  How bout another first kiss, I said
F          G          Am        D
  I want another first kiss like this
F            G       C         E
  How bout another first kiss.

   E
---------0-----|
-----------1---|
---1-2-4-------|
---------------|
---------------|
---------------|


F            G          C      E
  How bout another first kiss, she said
F            G          C      E
  How bout another first kiss, I said
F          G          Am        D
  I want another first kiss like this
F            G       C         
  How bout another first kiss.
Tap to rate this tab
# A B C D E F G H I J K L M N O P Q R S T U V W X Y Z