Song name
# A B C D E F G H I J K L M N O P Q R S T U V W X Y Z

They Might Be Giants - Seven Eleven tab

This is another raritey on dial-a-song, so this is for all of you true tmbg fans
Verse:
e|------------------0|
B|-7-5-44----7-5-44-0|
G|-7-5-44----7-5-44-0|X2
D|-7-5-44----7-5-44-2|
A|-5-3-22----5-3-22-2|
E|------------------0|
Chorus:
e|----------------------|
B|7--8--9--8------------|
G|7--8--9--8------------|
D|7--8--9--8--7--8--9--8|
A|5--6--7--6--5--6--7--6|
E|----------------------|
Verse:
Back to the Seven Eleven
Thought I do some window shopping there
I didnt plan on buying anything
I looked at an expesnsive item
I picked it up carefully
I made sure to hold the glass part
And then it just slipped out
The manager came out and said
Chorus:
You break it you buy it
You break it you buy it
Tap to rate this tab
# A B C D E F G H I J K L M N O P Q R S T U V W X Y Z