Song name
# A B C D E F G H I J K L M N O P Q R S T U V W X Y Z

They Might Be Giants - I Am A Human Head tab

-------------------------------------------------------------------------------
	   I AM A HUMAN HEAD - They Might Be Giants - solo/bridge thing
-------------------------------------------------------------------------------
Tabbed by: linnellover14 (Manda)
Email: thetangledweb14@gmail.com

this is my first tab ever, so here's my best try, but don't stab me if it's wrong :)

                     What do I really...       also a...     hair
e|-9-10-12-10-9----------12-10----12-10---10-9---9-7---9-7---5-4---------------|
B|--------------12-10--------------------------------------------5-------------|
G|--------------------11-------10-------9------8-----7----7--------------------|
D|-----------------------------------------------------------------------------|
A|-----------------------------------------------------------------------------|
E|-----------------------------------------------------------------------------|
                     friend,    no       scalp,   no       head,    no   hair
e|-9-10-12-10-9-10-12-14--------13-------12-------11-------10-------10---------|
B|------------------------------------------------------10-------10-------9-10-|
G|------------------------14-16----13-14----13-14----11-------11-------11------|
D|-----------------------------------------------------------------------------|
A|-----------------------------------------------------------------------------|
E|-----------------------------------------------------------------------------|


Then, at the end, i *think* it does the same thing, maybe a few differences, and there's 
second guitar playing this along with the solo (not completely sure about accuracy on 
part, though):

e|-----------------------------------------------------------------------------|
B|-----------------------------------------------------------------------------|
G|-14-11-14-10-14-9-14-8-14-9-10-9-7-6-----------------------------------------|
D|-----------------------------------------------------------------------------|
A|-----------------------------------------------------------------------------|
E|-----------------------------------------------------------------------------|

e|-----------------------------------------------------------------------------|
B|-----------------------------------------------------------------------------|
G|-14-11-14-10-14-9-14-8-14-9-10-9-7-6-----------------------------------------|
D|-----------------------------------------------------------------------------|
A|-----------------------------------------------------------------------------|
E|-----------------------------------------------------------------------------|

===============================================================================
Tap to rate this tab
 
# A B C D E F G H I J K L M N O P Q R S T U V W X Y Z