Song name
# A B C D E F G H I J K L M N O P Q R S T U V W X Y Z

Thief Club - Follow You tab

Thief Club - Follow You
http://thiefclub.com/

The solo project of Nick Thompson from Hit the Lights

https://www.youtube.com/watch?v=_SflAAa_pqQ  <------ Video of playthrough with both guitars



DROP C TUNING

Key:
b-bend
h-hammer on
p-pull off
*-pinch harmonics
r-release bend
v-vibrato


RHYTHM GUITAR:

For the most part, I'm only going to list the chords. Listen to the song for the right strumming.


E|----------------------------------------|
B|----------------------------------------|
G|-----3--------------------3-----------3-|
D|--1--3-X-X-3--5--3--5--1--3-X-X-3--5--3-|
A|--1--1-X-X-3--5--3--5--1--1-X-X-3--5--1-|
E|--1----X-X-3--5--3--5--1----X-X-3--5----|

On the corner of Spruce and Fair

E|-----------------|
B|-----------------|
G|-----------------|
D|--1--8--5--8--3--| X2
A|--1--8--5--8--3--|
E|--1--8--5--8--3--|

And it felt so right

E|----------------------------------------|
B|----------------------------------------|
G|-----3--------------------3-------------|
D|--1--3-X-X-3--5--3--5--1--3-X-X-5--3--X-|
A|--1--1-X-X-3--5--3--5--1--1-X-X-5--3--X-|
E|--1----X-X-3--5--3--5--1----X-X-5--3--X-|

Even if you're looking for trouble

E|-------------------------------------------|
B|-------------------------------------------|
G|-----3-----------3--------------3----------|
D|--1--3--3--5--1--3--3--5--3--1--3--3--5--3-|
A|--1--1--3--5--1--1--3--5--3--1--1--3--5--3-|
E|--1-----3--5--1-----3--5--3--1-----3--5--3-|
                         PM PM          PM PM

I'll follow you

E|----------------------------------------|
B|----------------------------------------|
G|-----3--------------------3-----------3-|
D|--1--3-X-X-3--5--3--5--1--3-X-X-3--5--3-|
A|--1--1-X-X-3--5--3--5--1--1-X-X-3--5--1-|
E|--1----X-X-3--5--3--5--1----X-X-3--5----|

We never did, we grew up instead

E|-----------------|
B|-----------------|
G|-----------------|
D|--1--8--5--8--3--| X2
A|--1--8--5--8--3--|
E|--1--8--5--8--3--|

And it felt so right

E|----------------------------------------|
B|----------------------------------------|
G|-----3--------------------3-------------|
D|--1--3-X-X-3--5--3--5--1--3-X-X-5--3--X-|
A|--1--1-X-X-3--5--3--5--1--1-X-X-5--3--X-|
E|--1----X-X-3--5--3--5--1----X-X-5--3--X-|

Even if you're looking for trouble

E|-------------------------------------------|
B|-------------------------------------------|
G|-----3-----------3--------------3----------|
D|--1--3--3--5--1--3--3--5--3--1--3--3--5--3-|
A|--1--1--3--5--1--1--3--5--3--1--1--3--5--3-|
E|--1-----3--5--1-----3--5--3--1-----3--5--3-|
                         PM PM          PM PM

I'll follow you

E|------------------------------------------|
B|------------------------------------------|
G|-----3--------------------3-------------3-|
D|--1--3-X-X-3--5--3--5--1--3-X-X-3--5--3-3-|
A|--1--1-X-X-3--5--3--5--1--1-X-X-3--5--3-1-|
E|--1----X-X-3--5--3--5--1----X-X-3--5--3---|

Like steel and rust left to the weather

E|-----------------------------|
B|-----------------------------|
G|-----------------------------|
D|--1--8--5--3--1--8--5--8--3--|
A|--1--8--5--3--1--8--5--8--3--|
E|--1--8--5--3--1--8--5--8--3--|

Chords played over solo

E|-------------------------------|
B|-------------------------------|
G|-------------------------------|
D|--1--8--8--3--5--1--5--8--3--X-|
A|--1--8--8--3--5--1--5--8--3--X-|
E|--1--8--8--3--5--1--5--8--3--X-|

E|-------------------------------------|
B|-------------------------------------|
G|-------------------------------------|
D|--1--8--8--3--5--1--5--8--3--5--8--3-|
A|--1--8--8--3--5--1--5--8--3--5--8--3-|
E|--1--8--8--3--5--1--5--8--3--5--8--3-|

Even if you're looking for trouble

E|------------------------------------------|
B|------------------------------------------|
G|----------3--------------3----------------|
D|-5--3--1--3--3--5--3--1--3--3--5--3-------|
A|-5--3--1--1--3--5--3--1--1--3--5--3-------|
E|-5--3--1-----3--5--3--1-----3--5--3-------|
                  PM PM          PM PM

I'll follow you

E|--------------------------------------|
B|--------------------------------------|
G|-----3--------------------3-----------|
D|--1--3-X-X-3--5--3--5--1--3-X-X-3--5--|
A|--1--1-X-X-3--5--3--5--1--1-X-X-3--5--|
E|--1----X-X-3--5--3--5--1----X-X-3--5--|


LEAD GUITAR:

For the most part, I'm only going to list the chords and notes. Listen to the song for 
the right strumming.


Intro Riff

E|----------------------------------------------------|
B|----------------------------------------------------|
G|-----10------------10---------------------10--------|
D|--8------8--10--8------8--10--8-----8h10------10p8--|
A|---------------------------------8------------------|
E|----------------------------------------------------|

E|------------------------------------------------------|
B|------------------------------------------------------|
G|-----10------------10---------------------------------|
D|--8------8--10--8------8--10/12--10--12--12*--10\8--8-|
A|------------------------------------------------------|
E|------------------------------------------------------|

No distortion

E|--------1--------1--------------1-----------------|
B|-----1-----1--------1--------1-----1--1-----1--3--|
G|--3-----------3--------3--3--------------3--------|
D|--------------------------------------------------| X4
A|--------------------------------------------------|
E|--------------------------------------------------|

And it felt so right

E|---------------6-----------6-----6/8--|
B|------------------6-----6-----6-------|
G|-----3--5b6r5--------5----------------|
D|--1--3--------------------------------|
A|--1--1--------------------------------|
E|--1-----------------------------------|


E|---------------6-----6/8--|
B|------------------6-------|
G|-----3--5b6r5-------------|
D|--1--3--------------------|
A|--1--1--------------------|
E|--1-----------------------|

Even if you're looking for trouble

E|-------------------------------------------|
B|-------------------------------------------|
G|-----3-----------3--------------3----------|
D|--1--3--3--5--1--3--3--5--3--1--3--3--5--3-|
A|--1--1--3--5--1--1--3--5--3--1--1--3--5--3-|
E|--1-----3--5--1-----3--5--3--1-----3--5--3-|
                         PM PM          PM PM

Riff Again

E|----------------------------------------------------|
B|----------------------------------------------------|
G|-----10------------10---------------------10--------|
D|--8------8--10--8------8--10--8-----8h10------10p8--|
A|---------------------------------8------------------|
E|----------------------------------------------------|

E|--------------------------------------------------------|
B|--------------------------------------------------------|
G|-----10------------10-----------------------------------|
D|--8------8--10--8------8--10/12--10--12v--12*--10\8--8--|
A|--------------------------------------------------------|
E|--------------------------------------------------------|


No distortion

E|--------1--------1--------------1-----------------|
B|-----1-----1--------1--------1-----1--1-----1--3--|
G|--3-----------3--------3--3--------------3--------|  X4
D|--------------------------------------------------|
A|--------------------------------------------------|
E|--------------------------------------------------|

And it felt so right

E|---------------6-----------6-----6/8--|
B|------------------6-----6-----6-------|
G|-----3--5b6r5--------5----------------|
D|--1--3--------------------------------|
A|--1--1--------------------------------|
E|--1-----------------------------------|

E|---------------6-----6/8--|
B|------------------6-------|
G|-----3--5b6r5-------------|
D|--1--3--------------------|
A|--1--1--------------------|
E|--1-----------------------|

Even if you're looking for trouble

E|-------------------------------------------|
B|-------------------------------------------|
G|-----3-----------3--------------3----------|
D|--1--3--3--5--1--3--3--5--3--1--3--3--5--3-|
A|--1--1--3--5--1--1--3--5--3--1--1--3--5--3-|
E|--1-----3--5--1-----3--5--3--1-----3--5--3-|
                         PM PM          PM PM

Riff Again

E|----------------------------------------------------|
B|----------------------------------------------------|
G|-----10------------10---------------------10--------|
D|--8------8--10--8------8--10--8-----8h10------10p8--|
A|---------------------------------8------------------|
E|----------------------------------------------------|

E|--------------------------------------------------------|
B|--------------------------------------------------------|
G|-----10------------10-----------------------------------|
D|--8------8--10--8------8--10/12--10--12v--12*--10\8--8--|
A|--------------------------------------------------------|
E|--------------------------------------------------------|

Solo


E|--13------13----------13----------|
B|------13------13--15------13--11--|
G|----------------------------------|      X4
D|----------------------------------|
A|----------------------------------|
E|----------------------------------|

E|--13----------13------------------------------------------------------------------13----------|
B|------11----------11----------11------13b15r13--11\10h11------13b15r13--11\10h11------11------|
G|----------12----------10--10------10----------------------10------------------------------12--|
D|----------------------------------------------------------------------------------------------|
A|----------------------------------------------------------------------------------------------|
E|----------------------------------------------------------------------------------------------|

E|--13----------13------------------------------------------------------------------13----------|
B|------11----------11----------11------13b15r13--11\10h11------13b15r13--11\10h11------10h11---|
G|----------12----------10--10------10----------------------10--------------------------------10|
D|----------------------------------------------------------------------------------------------|
A|----------------------------------------------------------------------------------------------|
E|----------------------------------------------------------------------------------------------|


Even if you're looking for trouble

E|------------------------------------------|
B|------------------------------------------|
G|----------3--------------3----------------|
D|-5--3--1--3--3--5--3--1--3--3--5--3-------|
A|-5--3--1--1--3--5--3--1--1--3--5--3-------|
E|-5--3--1-----3--5--3--1-----3--5--3-------|
                  PM PM          PM PM

Riff Again

E|----------------------------------------------------|
B|----------------------------------------------------|
G|-----10------------10---------------------10--------|
D|--8------8--10--8------8--10--8-----8h10------10p8--|
A|---------------------------------8------------------|
E|----------------------------------------------------|

E|--------------------------------------------------------|
B|--------------------------------------------------------|
G|-----10------------10-----------------------------------|
D|--8------8--10--8------8--10/12--10--12v----------------|
A|--------------------------------------------------------|
E|--------------------------------------------------------|
Tap to rate this tab
# A B C D E F G H I J K L M N O P Q R S T U V W X Y Z