Song name
# A B C D E F G H I J K L M N O P Q R S T U V W X Y Z

Thief Club - Slow Ride tab

Thief Club - Slow Ride
Drop C#






https://www.youtube.com/watch?v=rWjvOobCn2c   <------------- Video playthrough of both guitars







Surely not 100% correct. A lot of the lead was too low in the mix for me to hear.
This is the way I play it.

Rhythm:


E|--0--2--|
B|--3--3--|
G|--2--2--|  X 12
D|--0--0--|
A|--------|
E|--------|

If I wanna go

E|--------------------------|
B|--------------------------|
G|--------------------------|
D|--5--9--7--9--5--0--7--9--|
A|--5--9--7--9--5--0--7--9--|
E|--5--9--7--9--5--0--7--9--|


E|----------------------|
B|----------------------|
G|----------------------|
D|-5--9--7--9--5--2--7--|
A|-5--9--7--9--5--2--7--|
E|-5--9--7--9--5--2--7--|

as I breathe you in and out again

E|---------------------|
B|---------------------|
G|---------------------|
D|--5--9--5--9--12--7--|
A|--5--9--5--9--12--7--|
E|--5--9--5--9--12--7--|

I've been

E|--0--2--|
B|--3--3--|
G|--2--2--|  X 4
D|--0--0--|
A|--------|
E|--------|

If I wanna go

E|--------------------------|
B|--------------------------|
G|--------------------------|
D|--5--9--7--9--5--0--7--9--|
A|--5--9--7--9--5--0--7--9--|
E|--5--9--7--9--5--0--7--9--|


E|------------------------|
B|------------------------|
G|----------------------7-|
D|-5--9--7--9--5--2--7--7-|
A|-5--9--7--9--5--2--7--5-|
E|-5--9--7--9--5--2--7----|

as I breathe you in and out again

E|--------------|
B|--------------|
G|--------------|
D|--2--5--0--7--|
A|--2--5--0--7--|
E|--2--5--0--7--|
E|--------------|
B|--------------|
G|--------------|
D|--2--5--0--7--|
A|--2--5--0--7--|
E|--2--5--0--7--|
             PM

Take me anywhere right now

E|----------------------------------|
B|----------------------------------|
G|--------7------------------4--7---|
D|--5--9--7--7--9--5--7--2-\-4--7---|
A|--5--9--5--7--9--5--7--2-\-2--5---|
E|--5--9-----7--9--5--7--2-\--------|


If I wanna go

E|--------------------------|
B|--------------------------|
G|--------------------------|
D|--5--9--7--9--5--0--7--9--|
A|--5--9--7--9--5--0--7--9--|
E|--5--9--7--9--5--0--7--9--|

E|------------------------|
B|------------------------|
G|------------------------|
D|-5--9--7--9--5--2--7----|
A|-5--9--7--9--5--2--7----|
E|-5--9--7--9--5--2--7----|


If I wanna go

E|--------------------------|
B|--------------------------|
G|--------------------------|
D|--5--9--7--9--5--0--7--9--|
A|--5--9--7--9--5--0--7--9--|
E|--5--9--7--9--5--0--7--9--|

We can get lost on the back roads we knew,

E|----------------------|
B|----------------------|
G|----------------------|
D|--5--0--7--9--5--2--7-|
A|--5--0--7--9--5--2--7-|
E|--5--0--7--9--5--2--7-|


as I breathe you in and out again


E|-------------------              E|----|
B|-------------------              B|----|
G|-------------------              G|----|
D|--5--9--5--9--12--- X 4  Ends on D|--5-|
A|--5--9--5--9--12---              A|--5-|
E|--5--9--5--9--12---              E|--5-|

--------------------------------------------------------------------------

Lead:


I'm all for you


E|-----------------------------------------------------------|
B|--------10--------------------------10-----------10--------|
G|--7------------9/11-----9-----7------------9/11------9-----|  X 2
D|-----7------7--------7-----7-----7------7---------------7--|
A|-----------------------------------------------------------|
E|-----------------------------------------------------------|


You know exactly what I'm gonna do

E|--0-0--0--------------0--0--0-0--0----------------0--0--|
B|--2/3--3--------------3--5--2/3--3----------------5--3--|
G|-----------2--------2-----------------2--------2--------|
D|--------------2h4-----------------------2--4------------|
A|--------------------------------------------------------|
E|--------------------------------------------------------|

E|--0-0--0--------------0--0--0-0--0-----0-0--0-----|
B|--2/3--3--------------3--5--2/3--3-----2/3--3-----|
G|-----------2--------2---------------2-----------2-|
D|--------------2--4--------------------------------|
A|--------------------------------------------------|
E|--------------------------------------------------|


as I breathe you in and out again

E|------------------------------------------------------|
B|------------------------------------------------------|
G|--9--7--9--7--11--9--14--9--7--9--7--11--9--7--14--9--|
D|------------------------------------------------------|
A|--7--5--7--5--9---7--12--7--5--7--5--9---7--5--12--7--|
E|------------------------------------------------------|

You make every drop of rain sing

E|-----------------------------------------------------------|
B|--------10--------------------------10-----------10--------|
G|--7------------9/11-----9-----7------------9/11------9-----|
D|-----7------7--------7-----7-----7------7---------------7--|
A|-----------------------------------------------------------|
E|-----------------------------------------------------------|

|-------------------------------|
B|--------10--------------------|
G|--7------------9/11-----9-----|
D|-----7------7--------7-----7--|
A|------------------------------|
E|------------------------------|


You know exactly what I'm gonna do

E|--0-0--0--------------0--0--0-0--0----------------0--0--|
B|--2/3--3--------------3--5--2/3--3----------------5--3--|
G|-----------2--------2-----------------2--------2--------|
D|--------------2h4-----------------------2--4------------|
A|--------------------------------------------------------|
E|--------------------------------------------------------|

E|--0-0--0--------------0--0--0-0--0-----0-0--0-----|
B|--2/3--3--------------3--5--2/3--3-----2/3--3-----|
G|-----------2--------2---------------2-----------2-|
D|--------------2--4--------------------------------|
A|--------------------------------------------------|
E|--------------------------------------------------|

as I breathe you in and out again

E|--2--
B|--3--
G|--2--
D|--0--
A|-----
E|-----

E|--0-0--0--------------0--0--0-0--0----------------0--0--|
B|--2/3--3--------------3--5--2/3--3----------------5--3--|
G|-----------2--------2-----------------2--------2--------|
D|--------------2h4-----------------------2--4------------|
A|--------------------------------------------------------|
E|--------------------------------------------------------|

E|--0-0--0--------------0--0--0-0--0----0-0--0---|
B|--2/3--3--------------3--5--2/3--3----2/3--3---|
G|-----------2--------2--------------------------|
D|--------------2--4-----------------------------|
A|-----------------------------------------------|
E|-----------------------------------------------|

as I breathe you in and out again

E|------------------------------------------------------|
B|------------------------------------------------------|
G|--9--7--9--7--11--9--14--9--7--9--7--11--9--7--14--9--|
D|------------------------------------------------------|
A|--7--5--7--5--9---7--12--7--5--7--5--9---7--5--12--7--|
E|------------------------------------------------------|
Tap to rate this tab
 
# A B C D E F G H I J K L M N O P Q R S T U V W X Y Z