Song name
# A B C D E F G H I J K L M N O P Q R S T U V W X Y Z

Thieves And Villlains - Worlds Apart Acoustic tab

ARTIST:THIEVES AND VILLIANS
ALBUM :MOVEMENT
SONG  :WORLDS APART (ACOUSTIC

Ok so this is my first tab and it is like half one in the morning so it may not be 100% 
but it's fairly close I think.


					Lovely song so hope you enjoy it



Intro/Verse

e|---------------------------------------------------------------|
b|-----1---1---------1---1-----------1---1-----------3---3-------|
g|---0---0---0-----0---0---0-------0---0---0-------0---0---0-----| x2Intro
d|-3-------------2---------------0--------------0----------------|
a|---------------------------------------------------------------| x5Verse
e|---------------------------------------------------------------|


Chorus

e|---------------------------------------------------------------|
b|--1---1---1---1------------------------------------------------|
g|--2---2---0---0------------------------------------------------| x2
d|--2---3---2---0------------------------------------------------|
a|------3---3---3------------------------------------------------|
e|---------------------------------------------------------------|


Brigde

e|---------------------------------------------------------------|
b|--1---1---1----------------------------------------------------|
g|--0---2---0----------------------------------------------------| x2
d|--0---2---2----------------------------------------------------|
a|--2-------3----------------------------------------------------|
e|--3------------------------------------------------------------|
 ( dah dah...........)


End On

e|-------------|
b|-----1-------|
g|-----2-------| x2
d|-----2-------|
a|-------------|
e|-------------|


Intro
Verse
Chorus
Verse
Chorus
Bridge
Chorus
Verse
End

http://www.myspace.com/thievesandvillains
Tap to rate this tab
# A B C D E F G H I J K L M N O P Q R S T U V W X Y Z