Song name
# A B C D E F G H I J K L M N O P Q R S T U V W X Y Z

Thin Lizzy - Running Back tab

Great song from a great band
really really simple song
this tabs doesn´t contain the solo, I leave that up to the better tabbers...


rythm guitar:

riff 1:

E|------------------------|
B|------------------------|
G|-------7----9-----------|
D|--7----7----9-----------|
A|--7----5----7-----------|
E|--5---------------------|


riff 2:

E|------------------------|
B|------------------------|
G|--7----9----------------|
D|--7----9----7-----------|
A|--5----7----7-----------|
E|------------5-----------|


playing order rythm guitar:

riff 1 x3
riff 2 x1
riff 1 x3
riff 2 x2
riff 1 x3
riff 2 x2
riff 1 x3 (solo)
riff 2 x2 (solo)
riff 1 x3
riff 2 x4...fade out

solo guitar:

riff 1:
E|------------------------|
B|--10--------------------|
G|------11----9-9---------|
D|------------------------|   x2
A|------------------------|
E|------------------------|

E|------------------------|
B|--10--------------------|
G|------11----9-9-6-9-----|
D|------------------------|  x1
A|------------------------|
E|------------------------|


riff 2: (long notes)

E|-------------------------|
B|--10------------------10-|
G|-----11--------9---------|
D|-------------------------|
A|-------------------------|
E|-------------------------|

playing order solo guitar:

riff 1 x3
riff 2 x1
riff 1 x3
riff 2 x2
riff 1 x3
riff 2 x2
riff 1 x3 (solo)
riff 2 x2 (solo)
riff 1 x3
riff 2 x4...fade out

simple as that...I think? If there is something wrong comment pliz =D
Tap to rate this tab
# A B C D E F G H I J K L M N O P Q R S T U V W X Y Z