Song name
# A B C D E F G H I J K L M N O P Q R S T U V W X Y Z

Thin Lizzy - Do Anything You Want To tab

-------------------------------------------------------------------------------
			     Do Anything You Want To - Thin Lizzy
-------------------------------------------------------------------------------
Tabbed by:Mick
Email:anevilhomelessguy@gmail.com
This is my first tab so there probably will be mistakes, also i don't know the little 
he does going into the opening riff. I'll try to figure it out and add it later.
Tuning:EADGBE
Guitar 1
e|-----------------------------------------------------------------|
B|-----------------------------------------------------------------|
G|----------5/8~~5~~-------5-6~~5~~3-5-6-8~~6~~5~~6-8-10~~8~~6~~~--|
D|------------------6~~~-8-----------------------------------------|
A|-----------------------------------------------------------------|
E|-----------------------------------------------------------------|

e|----------------------------------------------------------------------------|
B|----------------------------------------------------------------------------|
G|-----------------~----------------------------------------------------------|
D|----------/10~~7~~-------7-8~~-7~~-5~~-7-8-10~~-8~~-7~~-8-10-12~~-10~~-8~~--|
A|------------------8~~-10----------------------------------------------------|
E|----------------------------------------------------------------------------|
play this once \/\/\/\/
e|--------------------------------------------------------------------------------------|
B|--------------------------------------------------------------------------------------|
G|-------5------------------------------------------------------------------------------|
D|---6---5---3--------------------------------------------------------------------------|
A|---6---3---3--------------------------------------------------------------------------|
E|---4-------1--------------------------------------------------------------------------|
-then play this twice                 play this after the second time
E|----------------------------------|---------------------------------------------------|
B|----------------------------------|---------------------------------------------------|
G|-3--------------------------------|---------------------------------------------------|
D|-3---6---5-------5---4---3--------|--------2------------------------------------------|
A|-1---6---5-------5---4---3--------|--------2------------------------------------------|
E|-----4---3-------3---2---1--------|--------0------------------------------------------|
 this part im really not sure about to me it sounds something like this
e|--------8--8-8-8----------------8--8-8-8----------------------------------------------|
B|--------9--9-9-9----------------9--9-9-9----------------------------------------------|
G|--------8--8-8-8----5-----------8--8-8-8----------------------------------------------|
D|--6-----------------5---3---6---------------------------------------------------------|
A|--6-----------------3---3---6---------------------------------------------------------|
E|--4---------------------1---4---------------------------------------------------------|
theres more to this song but im getting tired so ill try to finish this tommorow
e|---------------------------------------------------------------------------|
B|---------------------------------------------------------------------------|
G|---------------------------------------------------------------------------|
D|---------------------------------------------------------------------------|
A|---------------------------------------------------------------------------|
E|---------------------------------------------------------------------------|

e|---------------------------------------------------------------------------|
B|---------------------------------------------------------------------------|
G|---------------------------------------------------------------------------|
D|---------------------------------------------------------------------------|
A|---------------------------------------------------------------------------|
E|---------------------------------------------------------------------------|

e|---------------------------------------------------------------------------|
B|---------------------------------------------------------------------------|
G|---------------------------------------------------------------------------|
D|---------------------------------------------------------------------------|
A|---------------------------------------------------------------------------|
E|---------------------------------------------------------------------------|


| /  slide up
| \  slide down
| h  hammer-on
| p  pull-off
| ~  vibrato
| +  harmonic
| x  Mute note
===============================================================================
Tap to rate this tab
# A B C D E F G H I J K L M N O P Q R S T U V W X Y Z