Song name
# A B C D E F G H I J K L M N O P Q R S T U V W X Y Z

Thin Lizzy - A Night In The Life Of A Blues Singer tab

Thin Lizzy
A night and life of a blues singer


   Intro 2 x
E----------------------------------------------------------------|
B----------------------------------------------------------------|
G----------------------------------------------------------------|
D---------------7---------7---------7------------------7---------|
A----7--8---9-------9--8-----8--7------7---7---8---9------9---8--|
E----------------------------------------------------------------|

                               right before verse
E------------------------------------------------------------------|
B------------------------------------------------------------------|
G------------------------------------------------------------------|
D--7-------7----2x--------------------7--------7---------7---------|
A------8---7--------------------7---8---9-----9--8-----8---7-----7-|
E------------------------------------------------------------------|


E---------------------------------------------------------------------|
B---------------------------------------------------------------------|
G---------------------------------------------------------------------|
D------7-----------7----------7---------------------------------------|
A--6------6---5-------5---4-------------------------------------------|
E---------------------------------5-----------------------------------|

                                       verse kinds strum chords like before verse
                                                part


chorus use the same as verse and end with stumming B chord then E chord
Tap to rate this tab
# A B C D E F G H I J K L M N O P Q R S T U V W X Y Z