Guitaretab - guitar tabs
Song name
# A B C D E F G H I J K L M N O P Q R S T U V W X Y Z

Thin Lizzy - Bad Reputation tab

Bad Reputation V Thin Lizzy

This is my first tab so if it is not good I apologize. At least I tried. Please rate and 
!!
                  No solo completed yet but I will try to get it soon V Sorry for the inconvenience


Tabbed By: Kodi McGovern
E-Mail: ---
Date: 06/10/07 8:39PM
Tuning: Standard

      Verse 1
E|--------------|
B|--------------|
G|--------------|
D|--------------|    x4
A|-------5------|
E|--77777-7--XX-|
[ Tab from: http://www.guitaretab.com/t/thin-lizzy/140397.html ]
Chorus (Before playing chords, play the intro riff once)
E|----------------------------------------------------|
B|----------------------------------------------------|
G|------------------------------9-XXX--7--XX-5/4------|
D|-Pick-Scrape---XXX-----7--XX--9-XXX--7--XX-5/4------|  x4
A|-Pick-Scrape---XXX-----7--XX--7-XXX--5--XX-3/2------|
E|---------------XXX-----5--XX------------------------|

          Verse 2
E|-------------------------|
B|-------------------------|
G|-------------------------|
D|-------------------------|  I would say 9 or 10x
A|----------5--------------|
E|-----77777-7-5h777-------|


E|------------|
B|------------|
G|--9-----7/9-|
D|--9-x5--7/9-|  x4
A|--7-----5/7-|
E|------------|

Now just repeat the chorus x4

[[[SOLO: Still working on it]]]

Here is the tab onward from the solo, in the back ground it play the verse 1 riff during 
solo (on bass).


E|----------|
B|----------|
G|----------|
D|----------|
A|--2tr0-x15|
E|----------|

Repeat chorus x4, other guitar still trilling.


Well that's pretty much it except for the missing solo. I'll have it sometime soon. 
greatly appreciated !
Related for Bad Reputation tab