Song name
# A B C D E F G H I J K L M N O P Q R S T U V W X Y Z

Thin Lizzy - Parisienne Walkways tab

Thin lizzy.
Prefered effect used : sight distortion but nothing too heavy.

E------------------12---10---9--------------------12--10--|
B-------------------------------12--10--------------------|
G---------------------------------------12--10------------|
D-7--2----------------------------------------------------|
A-------3-------------------------------------------------|
E---------------------------------------------------------|

E---b--------------------------b-------------------------------|
B-13(15)-13-12--10--------------13(15)-13----------------------|
G----------------12--10--9-------------------------------------|
D--------------------------------------------------------------|
A--------------------------------------------------------------|
E--------------------------------------------------------------|

E----------b-----------------------------------------------|
B-10--12--(12)--12--10----------------13--12---------------|
G-----------------------12--10--9--7-----------------------|
D----------------------------------------------------------|
A----------------------------------------------------------|
E----------------------------------------------------------|

E----------------------------------------------------------|
B-12--10--9------------------------------------------------|
G------------10--9--7--5-----------------------------------|
D-------------------------7--2-----------------------------|
A-------------------------------3--------------------------|
E----------------------------------------------------------|

REPEAT HOLE INTRO AGAIN!!

The rest of the song for lead guitar goes along them tabs with a slight imprivisation 
Gary Moore himself but its not that hard to learn by ear.
Ill have the rythm guitar part quite soon.

Have fun
Tap to rate this tab
# A B C D E F G H I J K L M N O P Q R S T U V W X Y Z