Song name
# A B C D E F G H I J K L M N O P Q R S T U V W X Y Z

Thin Lizzy - Warrior tab

-------------------------------------------------------------------------------
Tabbed by:Jim Myers	
Email:jemyers1075@yahoo.com

Tuning:EADGBD
            Intro
e|---------------------------------------------------------------------------|
B|-9--9---9---7-------9--9--9---9--9--9--9----7------------------------------|
G|-9--9---9---7-------9--9--9---9--9--9--9----7--------------------2x--------|
D|-9--9---9---7-------9--9--9---9--9--9--9----7------------------------------|
A|-7--7---7---5-------7--7--7---7--7--7--7----5------------------------------|
E|---------------------------------------------------------------------------|

e|---------------------------------------------------------------------------|
B|-14--14--14---12-----14--14--14--14--14-----12-----------------------------|
G|-14--14--14---12-----14--14--14--14--14-----12-----------------------------|
D|-14--14--14---12-----14--14--14--14--14-----12--------------------2x-------|
A|-12--12--12---10-----12--12--12--12--12-----10-----------------------------|
E|---------------------------------------------------------------------------|
           Riff A
e|---------------------------------------------------------------------------|
B|---------------------------------------------------------------------------|
G|---------------------------------------------------------------------------|
D|---5--------5---------------------4x---------------------------------------|
A|--------7--------7----5----------------------------------------------------|
E|----------------------------7----------------------------------------------|
           Verse
e|--7----5---------------------3----5--------------------------------------------|
B|--7----5---------------------4----5--------------------------------------------|
G|--8----6---------------------5----6----------------------------- Riff A--------|
D|--9----7------------5--------5----7--------------5-----------------------------|
A|--9----7---7--7--7-----7-----3----7----7--7--7-------7-------------------------|
E|--7----5---------------------3----5--------------------------------------------|
               Riff B
e|---------------------------------------------------------------------------|
B|----------------------------2----------------------------------------------|
G|----------------------------2----3x----------------------------------------|
D|-------------------5--3x----2----------------------------------------------|
A|---7---7--7---7-------------0----------------------------------------------|
E|---------------------------------------------------------------------------|
              Ending
e|---------------------------------------------------------------------------|
B|---------------5----7------------------------------------------------------|
G|---------------5----7------------------------------------------------------|
D|---------------5----7----5----------------2--------------------------------|
A|---Riff A------3----5--------7--5---------2--------------------------------|
E|-------------------------------------7----0--------------------------------|


| /  slide up
| \  slide down
| h  hammer-on
| p  pull-off
| ~  vibrato
| +  harmonic
| x  Mute note
===========================================================
Tap to rate this tab
 
# A B C D E F G H I J K L M N O P Q R S T U V W X Y Z