Song name
# A B C D E F G H I J K L M N O P Q R S T U V W X Y Z

Thin Lizzy - Old Flame tab

Thin Lizzy - Old Flame

Tabbed by Audun Spachmo

E<-----------------------------------------------------------|
B<----------------------------------------------11-9--11-----|
G<------------------------6-----8b10--10-10------------------|
D<--------------8-6---6-8---8-6------------------------------|
A<------4-8-6-4----------------------------------------------|
E<--4-6------------------------------------------------------|


E<-----------------------------------------------------------|
B<--11p9-6---------------------------------------------------|
G<---------8b10b8--6-----------------------------------------|
D<-----------------------------------------------------------|
A<-----------------------------------------------------------|
E<-----------------------------------------------------------|


E<----------------------------------------------------------|
B<--14--11h14p11--9h11p9------9-----------------------------|
G<-----------------------10-8---10-8-10-8--6----8p6---6h8p6-|
D<-------------------------------------------8------8-------|
A<----------------------------------------------------------|
E<----------------------------------------------------------|


E<-----------------9h11p9h11p9h11---13----11-9h11p9--8-9----|
B<-----9-9-11-----------------------------------------------|
G<--10------------------------------------------------------|
D<----------------------------------------------------------|
A<----------------------------------------------------------|
E<----------------------------------------------------------|


E<--9p8p6----6----------------------------------------------|
B<--------h9----9--7h9p7--6-7-6-----------------------------|
G<-------------------------------8-6---8-6------------------|
D<-----------------------------------8----------------------|
A<----------------------------------------------------------|
E<----------------------------------------------------------|
Tap to rate this tab
 
# A B C D E F G H I J K L M N O P Q R S T U V W X Y Z