Song name
# A B C D E F G H I J K L M N O P Q R S T U V W X Y Z

Thin Lizzy - Sarah tab

Sarah, solo
Thin Lizzy
Tabbed by Almir Nametak
mokra@freenetname.co.uk

E---------14/16--14/16-14-12-14-14151412--------17-14------------------------------|
B---12-12-------------------------------13-15/17-----15-----------12-13------------|
G------------------------------------------------------16-14-12-14-----11-12-14-13-|
D----------------------------------------------------------------------------------|
A----------------------------------------------------------------------------------|
E----------------------------------------------------------------------------------|

E------------------12-15/17-15-14-15-141514-|
B------12--12-13-15-------------------------|
G-13-14--14---------------------------------|
D-------------------------------------------|
A-------------------------------------------|
E-------------------------------------------|
Tap to rate this tab
# A B C D E F G H I J K L M N O P Q R S T U V W X Y Z