Song name
# A B C D E F G H I J K L M N O P Q R S T U V W X Y Z

Thin Lizzy - Dont Believe A Word tab

Fig 1

e------------       ----|
B------------       ----|
G------------       ----|
D------7-5-4-  x7   --7-|
A--0-0-0-0-0-       --0-|
E------------       ----|


Fig 2

e------------       ----------------|
B------------       ----------------|
G------------       --7-7-7-5-7-4---|
D------7-5-7-   x2  --7-7-7-5-7-5---|
A--0-0-0-0-0-       ----------------|
E------------       ----------------|


Fig 3

e-------------------|
B-------------------|
G--14-12-10---------|
D--14-12-10-12-10-5-|
A--12-10-8--12-10-5-|
E-----------10-8--3-|


Fig 2

e------------       ----------------|
B------------       ----------------|
G------------       --7-7-7-5-7-4---|
D------7-5-7-   x2  --7-7-7-5-7-5---|
A--0-0-0-0-0-       ----------------|
E------------       ----------------|


Fig 3

e-------------------|
B-------------------|
G--14-12-10---------|
D--14-12-10-12-10-5-|
A--12-10-8--12-10-5-|
E-----------10-8--3-|


Fig 4

e-------------    -----------      ------------------|
B-------------    -----------      ------------------|
G-------------    -------7-7-      ------------------|
D------------- x2 -0-0-0-0-0-  x4  --------7-7-5-5-7-|
A--------7----    -----------      --0-0-0-0-0-0-0-0-|
E--0-0-0---0--    -----------      ------------------|


Fig 2

e------------       ----------------|
B------------       ----------------|
G------------       --7-7-7-5-7-4---|
D------7-5-7-   x2  --7-7-7-5-7-5---|
A--0-0-0-0-0-       ----------------|
E------------       ----------------|
Tap to rate this tab
# A B C D E F G H I J K L M N O P Q R S T U V W X Y Z