Song name
# A B C D E F G H I J K L M N O P Q R S T U V W X Y Z

Thin Lizzy - Jailbreak tab

e--------------------|
B--------------------|
G--2-----------------|
D--2-----------------|  X12
A--0-2-2-4-4-2-2-4-2-|
E----0-0-2-2-0-0-2-0-|


e----------------      --------------|
B----------------      --------------|
G------------9-9-      --------------|
D--9-9-9-9-9-9-9-  X3  --------------|
A--9-9-9-9-9-7-7-      ----4-7-------|
E--7-7-7-7-7-0-0-      --5-----4-0-2-|


e------------------------------------|
B------------------------------------|
G--9-----13-----14-----15-----16-----|
D------------------------------------|
A--7-----11-----12-----13-----14-----|  X4
E--0-0-0-0--0-0-0--0-0-0--0-0-0--0-0-|


e--------------------------------|
B--------------------------------|
G--2-----6-----7-----8-----9-----|
D--2-----------------------------|
A--0-0-0-4-0-0-5-0-0-6-0-0-7-0-0-|
E--------------------------------|


e-------------------------------------------------------|
B-------------------------------------------------------|
G--9-----13-----14-----15-----16-----18-----19-----20-9-|
D-------------------------------------------------------|
A--7-----11-----12-----13-----14-----16-----17-----18---|
E--0-0-0-0--0-0-0--0-0-0--0-0-0--0-0-0--0-0-0--0-0-0----|

Back to start^
Tap to rate this tab
 
# A B C D E F G H I J K L M N O P Q R S T U V W X Y Z