Song name
# A B C D E F G H I J K L M N O P Q R S T U V W X Y Z

Thin Lizzy - Dancing In The Moonlight tab

hey this is my version of dancing in the moonlight

its a pretty easy song to play but it cool :)
any probs let us kno and plz rate 

standard tuning

intro/bass
|----------------------------------------|
|----------------------------------------|
|----------------------------------------|
|--------2-22--------2-------------------|
|--22-44------4-2-44---22-44-3-33-2------|
|-----------------------------------5-3--|

verse
|--7-x-7-7-x-x-5-x-5-5-x-x-3-x-3-3-x-x------------|
|--8-x-8-8-x-x-7-x-7-7-x-x-5-x-5-5-x-x------------|
|--7-x-7-7-x-x-7-x-7-7-x-x-5-x-5-5-x-x------------|
|--9-x-9-9-x-x-7-x-7-7-x-x-5-x-5-5-x-x------------|
|--7-x-7-7-x-x-5-x-5-5-x-x-3-x-3-3-x-x------------|
|-------------------------------------------------|
1st time 
|-------------------------------|
|--12-12-13-12-12-13-12---------|
|--12-12-14-12-12-14-12---------|
|--12-12-12-12-12-12-12---------|
|-------------------------------|
|-------------------------------|
2nd time
|-------------------------------|
|--17-x-15-x-13-12--------------|
|--17-x-16-x-14-12--------------|
|--17-x-14-x-12-12--------------|
|-------------------------------|
|-------------------------------|
3rd time
|-------------------------------|
|--12-12-13-12-13/15-13-12------|
|--12-12-14-12-14/16-14-12------|
|--12-12-12-12-12/14-12-12------|
|-------------------------------|
|-------------------------------|
4th time
|--3-3-x-3-3-------------------------|
|--3-3-x-3-3-------------------------|
|--4-4-x-4-4-------------------------|
|--5-5-x-5-5-------------------------|
|--5-5-x-5-5-------------------------|
|--3-3-x-3-3-------------------------|

chorus
|--7-x-7-7-x-x-5-x-5-5-x-x-3-x-3-3-x-x-3-3-x-3-3--|
|--8-x-8-8-x-x-7-x-7-7-x-x-5-x-5-5-x-x-3-3-x-3-3--|
|--7-x-7-7-x-x-7-x-7-7-x-x-5-x-5-5-x-x-4-4-x-4-4--|
|--9-x-9-9-x-x-7-x-7-7-x-x-5-x-5-5-x-x-5-5-x-5-5--|
|--7-x-7-7-x-x-5-x-5-5-x-x-3-x-3-3-x-x-5-5-x-5-5--|
|--------------------------------------3-3-x-3-3--|

|--7-x-7-7-x-x-5-x-5-5-x-x-3-x-3-3-x-x-3---xxxxxxx--|
|--8-x-8-8-x-x-7-x-7-7-x-x-5-x-5-5-x-x-3---xxxxxxx--|
|--7-x-7-7-x-x-7-x-7-7-x-x-5-x-5-5-x-x-4---xxxxxxx--|
|--9-x-9-9-x-x-7-x-7-7-x-x-5-x-5-5-x-x-5---xxxxxxx--|
|--7-x-7-7-x-x-5-x-5-5-x-x-3-x-3-3-x-x-5---xxxxxxx--|
|--------------------------------------3---xxxxxxx--|

verse
|--7-x-7-7-x-x-5-x-5-5-x-x-3-x-3-3-x-x------------|
|--8-x-8-8-x-x-7-x-7-7-x-x-5-x-5-5-x-x------------|
|--7-x-7-7-x-x-7-x-7-7-x-x-5-x-5-5-x-x------------|
|--9-x-9-9-x-x-7-x-7-7-x-x-5-x-5-5-x-x------------|
|--7-x-7-7-x-x-5-x-5-5-x-x-3-x-3-3-x-x------------|
|-------------------------------------------------|
1st time 
|-------------------------------|
|--12-12-13-12-12-13-12---------|
|--12-12-14-12-12-14-12---------|
|--12-12-12-12-12-12-12---------|
|-------------------------------|
|-------------------------------|
2nd time
|-------------------------------|
|--17-x-15-x-13-12--------------|
|--17-x-16-x-14-12--------------|
|--17-x-14-x-12-12--------------|
|-------------------------------|
|-------------------------------|
3rd time
|-------------------------------|
|--12-12-13-12-13/15-13-12------|
|--12-12-14-12-14/16-14-12------|
|--12-12-12-12-12/14-12-12------|
|-------------------------------|
|-------------------------------|
4th time
|--3-3-x-3-3-------------------------|
|--3-3-x-3-3-------------------------|
|--4-4-x-4-4-------------------------|
|--5-5-x-5-5-------------------------|
|--5-5-x-5-5-------------------------|
|--3-3-x-3-3-------------------------|

chorus
|--7-x-7-7-x-x-5-x-5-5-x-x-3-x-3-3-x-x-3-3-x-3-3--|
|--8-x-8-8-x-x-7-x-7-7-x-x-5-x-5-5-x-x-3-3-x-3-3--|
|--7-x-7-7-x-x-7-x-7-7-x-x-5-x-5-5-x-x-4-4-x-4-4--|
|--9-x-9-9-x-x-7-x-7-7-x-x-5-x-5-5-x-x-5-5-x-5-5--|
|--7-x-7-7-x-x-5-x-5-5-x-x-3-x-3-3-x-x-5-5-x-5-5--|
|--------------------------------------3-3-x-3-3--|

|--7-x-7-7-x-x-5-x-5-5-x-x-3-x-3-3-x-x-3---xxxxxxx--|
|--8-x-8-8-x-x-7-x-7-7-x-x-5-x-5-5-x-x-3---xxxxxxx--|
|--7-x-7-7-x-x-7-x-7-7-x-x-5-x-5-5-x-x-4---xxxxxxx--|
|--9-x-9-9-x-x-7-x-7-7-x-x-5-x-5-5-x-x-5---xxxxxxx--|
|--7-x-7-7-x-x-5-x-5-5-x-x-3-x-3-3-x-x-5---xxxxxxx--|
|--------------------------------------3---xxxxxxx--|

|----------------------------------------|
|----------------------------------------|
|----------------------------------------|
|--------2-22--------2-------------------|
|--22-44------4-2-44---22-44-3-33-2------|
|-----------------------------------5-3--|


solo
|------------------------------------------------------------------------|
|--15b17-15b17r15-12-15b17-12-15b17-15-12--------------------------------|
|--------------------------------------------12-14-12-14b16r14-12-14b16--|
|-----------------------------------------14-----------------------------|
|------------------------------------------------------------------------|
|------------------------------------------------------------------------|

slitly mute
|---------------------------|--15-12-10-8\7/8-10-12--|
|---------------------------|--x--x--x--x-x-x-x--x---|
|--------14----14-12----12\-|--12-9--7--5\4/5-7--9---|
|--12-14----14-------14-----|------------------------|
|---------------------------|------------------------|
|---------------------------|------------------------|

|--12----15p12----12-------------|--12-15p12----12--------------|
|--12-12-------15----15-12-------|-----------15----15-12--------|
|--------------------------14b16-|-----------------------14b16--|x2
|--------------------------------|------------------------------|
|--------------------------------|------------------------------|
|--------------------------------|------------------------------|

|--12-15p12----12--------------------------------------|
|-----------15----15-12--------------------------------|
|-----------------------14p12----14-12----12-----------|
|-----------------------------14-------14----14/12-----|
|--------------------------------------------------10--|
|------------------------------------------------------|

|--------------------------------------17b19r17-15--|
|--------------15-12-15-12-15b17r15-12--------------|
|--12----14-12--------------------------------------|
|-----14--------------------------------------------|
|---------------------------------------------------|
|---------------------------------------------------|

chorus
|--7-x-7-7-x-x-5-x-5-5-x-x-3-x-3-3-x-x-3-3-x-3-3--|
|--8-x-8-8-x-x-7-x-7-7-x-x-5-x-5-5-x-x-3-3-x-3-3--|
|--7-x-7-7-x-x-7-x-7-7-x-x-5-x-5-5-x-x-4-4-x-4-4--|
|--9-x-9-9-x-x-7-x-7-7-x-x-5-x-5-5-x-x-5-5-x-5-5--|
|--7-x-7-7-x-x-5-x-5-5-x-x-3-x-3-3-x-x-5-5-x-5-5--|
|--------------------------------------3-3-x-3-3--|

repeat until fade

hope u enjoy playing the song any probs let us know :)





Tap to rate this tab
# A B C D E F G H I J K L M N O P Q R S T U V W X Y Z