Song name
# A B C D E F G H I J K L M N O P Q R S T U V W X Y Z

Thin Lizzy - The Boys Are Back In Town tab

hey

this is my version of boys are back in town

hope u enjoy it any probs let us kno :)

tuned down half step (Eb,Ab,Db,Gb,Bb,Eb)

intro
|--3---------------7----5-----|
|--3---------------7----7-----|
|--4---------------7----7-----|
|--7---------------9----7-----|
|--7-7-999-7---7-9-9----5-----|
|--5---------9-----7----------|

verse
|--5--44--44--5--5-2--2-4--4-2--2-5--5-5---|
|--5--55--55--7--7-2--2-5--5-2--2-7--7-7---|
|--4--44--44--7--7-3--3-4--4-3--3-7--7-7---|
|--7--66--66--7--7-4--4-6--6-4--4-7--7-7---|
|--7--44--44--5--5-4--4-4--4-4--4-5--5-5---|
|--5---------------2--2------2--2----------|

|--5-5--44--44--5--5-8---8--7--7-4--4-5--5-5-|
|--7-5--55--55--7--7-10--10-9--9-5--5-7--7-7-|
|--7-4--44--44--7--7-10--10-9--9-4--4-7--7-7-|
|--7-7--66--66--7--7-10--10-9--9-6--6-7--7-7-|
|--5-7--44--44--5--5-8---8--7--7-4--4-5--5-5-|
|----5---------------------------------------|

chorus
|--4-------7--------5--------|
|--4-------7--------7--------|
|--5-------7--------7--------|
|--7-------9--------7--------|
|--7-------9--------5--------|
|--5-------7-----------------|

riff
|-------------------------------------------------------|
|-------------------------------------------------------|
|-------66--------66--------6-9--------6-7-7-7-7-6---6--|
|--77-9----7-77-9----7-77-9-----7-77-9-------------9----|
|-------------------------------------------------------|
|-------------------------------------------------------|

|-------------------------------------------------------|
|-------------------------------------------------------|
|-------66--------66--------6-9--------6-7-7-7-7-6------|
|--77-9----7-77-9----7-77-9-----7-77-9-------------9----|
|-------------------------------------------------------|
|-------------------------------------------------------|

verse
|--5--44--44--5--5-2--2-4--4-2--2-5--5-5---|
|--5--55--55--7--7-2--2-5--5-2--2-7--7-7---|
|--4--44--44--7--7-3--3-4--4-3--3-7--7-7---|
|--7--66--66--7--7-4--4-6--6-4--4-7--7-7---|
|--7--44--44--5--5-4--4-4--4-4--4-5--5-5---|
|--5---------------2--2------2--2----------|

|--5-5--44--44--5--5-8---8--7--7-4--4-5--5-5-|
|--7-5--55--55--7--7-10--10-9--9-5--5-7--7-7-|
|--7-4--44--44--7--7-10--10-9--9-4--4-7--7-7-|
|--7-7--66--66--7--7-10--10-9--9-6--6-7--7-7-|
|--5-7--44--44--5--5-8---8--7--7-4--4-5--5-5-|
|----5---------------------------------------|

chorus
|--4-------7--------5--------|
|--4-------7--------7--------|
|--5-------7--------7--------|
|--7-------9--------7--------|
|--7-------9--------5--------|
|--5-------7-----------------|

riff
|-------------------------------------------------------|
|-------------------------------------------------------|
|-------66--------66--------6-9--------6-7-7-7-7-6---6--|
|--77-9----7-77-9----7-77-9-----7-77-9-------------9----|
|-------------------------------------------------------|
|-------------------------------------------------------|

|-------------------------------------------------------|
|-------------------------------------------------------|
|-------66--------66--------6-9--------6-7-7-7-7-6------|
|--77-9----7-77-9----7-77-9-----7-77-9-------------9----|
|-------------------------------------------------------|
|-------------------------------------------------------|


|------------------------------------------------------------|
|------------------------------------------------------------|
|--121212121212121212121212-111111111111111111111111---------|
|--121212121212121212121212-111111111111111111111111---------|
|--101010101010101010101010-9-9-9-9-9-9-9-9-9-9-9-9----------|
|------------------------------------------------------------|

|--4--4-2--2-5--5-5--5--------------------|
|--5--5-2--2-7--7-7--7--------------------|
|--4--4-2--2-7--7-7--7--------------------|
|--6--6-4--4-7--7-7--7-4------------------|x2
|--4--4-4--4-5--5-5--5-4-444444444444-----|
|-------2--2-----------2-222222222222-----|

verse
|--5--44--44--5--5-2--2-4--4-2--2-5--5-5---|
|--5--55--55--7--7-2--2-5--5-2--2-7--7-7---|
|--4--44--44--7--7-3--3-4--4-3--3-7--7-7---|
|--7--66--66--7--7-4--4-6--6-4--4-7--7-7---|
|--7--44--44--5--5-4--4-4--4-4--4-5--5-5---|
|--5---------------2--2------2--2----------|

|--5-5--44--44--5--5-8---8-/10-7--7-4--4-5--5-5-|
|--7-5--55--55--7--7-10--10/12-9--9-5--5-7--7-7-|
|--7-4--44--44--7--7-10--10/12-9--9-4--4-7--7-7-|
|--7-7--66--66--7--7-10--10/12-9--9-6--6-7--7-7-|
|--5-7--44--44--5--5-8---8-/10-7--7-4--4-5--5-5-|
|----5------------------------------------------|

chorus
|--4-------7--------5--------|
|--4-------7--------7--------|
|--5-------7--------7--------|
|--7-------9--------7--------|
|--7-------9--------5--------|
|--5-------7-----------------|

slitly mute towards end

lead bit
|-------------------------------------|
|-------------------------------------|
|--2/6-2-0-2-4---0-2-4----------------|
|--------------4-------4-7--9---------|
|------------------------5--7---------|
|-------------------------------------|

|-------------------------------------|
|-------------------------------------|
|--6/9-6-6-7-9---6-7-9----------------|
|--------------7-------7-7--9---------|
|------------------------5--7---------|
|-------------------------------------|


outro
1st harmony
|-------------------------------------------------------|
|-------------------------------------------------------|
|-------66--------66--------6-9--------6-7-7-7-7-6------|
|--77-9----7-77-9----7-77-9-----7-77-9-------------9----|
|-------------------------------------------------------|
|-------------------------------------------------------|
2nd harmony
|-----------------------------------------------------------------|
|--------------------------------10-------------------------------|
|--9------------9-9------------9---------------9-11-11-11-11-9----|
|----11-1111-12-----11-1111-12------11-1111-12-----------------12-|
|-----------------------------------------------------------------|
|-----------------------------------------------------------------|
3rd harmony
|-----------------------------------------------------------------------------|
|--10---------10-10---------10-10---------10-12---------10-12-12-12-12-10-----|
|-----9-99-11-------9-99-11-------9-99-11-------9-99-11-------------------11--|
|-----------------------------------------------------------------------------|
|-----------------------------------------------------------------------------|
|-----------------------------------------------------------------------------|
4th harmony
|-----------------------------------------------------------------------------------------|
|--14------------14-14------------14-14------------14-17------------14-15-15-15-15-14-----|
|-----14-1414-16-------14-1414-16-------14-1414-16-------14-1414-16-------------------16--|
|-----------------------------------------------------------------------------------------|
|-----------------------------------------------------------------------------------------|
|-----------------------------------------------------------------------------------------|
last harmony
|-----------------------------------17----------------------------------------------------------|
|--17-14-1414-15-1717-14-1414-15-17----14-1414-15-1717b19-19-19-19-17-15-17b19-19-19-19-17-15-14|
|-----------------------------------------------------------------------------------------------|
|-----------------------------------------------------------------------------------------------|
|-----------------------------------------------------------------------------------------------|
|-----------------------------------------------------------------------------------------------|

hope that helps enjoy the song

Tap to rate this tab
 
# A B C D E F G H I J K L M N O P Q R S T U V W X Y Z