Song name
# A B C D E F G H I J K L M N O P Q R S T U V W X Y Z

Thin Lizzy - Jailbreak tab

Intro:
|-----------------------|
|-----------------------|
|-----------------------|
|-2---4-4--------4------|x4
|-0-2-4-4--2-2-2-4-2----|
|---0-2-2--0-0-0-2-0----|

Verse 1 :
|-----------------------|  
|-----------------------|  
|-----------------------|  
|-2---4-4--------4------|x7 
|-0-2-4-4--2-2-2-4-2----|  
|---0-2-2--0-0-0-2-0----|  

|----------|
|----------|
|----------|
|-2---4-4--|
|-0-2-4-4--|
|---0-2-2--|

Chorus:
|---------------------------------------------------------------------|
|-17fb--17----17fb--17--14-17-14-17fb--17------14---------------------|
|-------------------------------------------16----16fbr--14-16----14v-|
|--------------------------------------------------------------16-----|
|---------------------------------------------------------------------|
|---------------------------------------------------------------------|

Verse 2:
|-----------------------|
|-----------------------|
|-----------------------|
|-2---4-4--------4------|x4
|-0-2-4-4--2-2-2-4-2----|
|---0-2-2--0-0-0-2-0----|

|-----------------------|  
|-----------------------|  
|-----------------------|  
|-2---4-4--------4------|x7 
|-0-2-4-4--2-2-2-4-2----|  
|---0-2-2--0-0-0-2-0----|  

|----------|
|----------|
|----------|
|-2---4-4--|
|-0-2-4-4--|
|---0-2-2--|

Chorus: 
|---------------------------------------------------------------------|
|-17fb--17----17fb--17--14-17-14-17fb--17------14---------------------|
|-------------------------------------------16----16fbr--14-16----14v-|
|--------------------------------------------------------------16-----|
|---------------------------------------------------------------------|
|---------------------------------------------------------------------|

|-------------------------17-------------------------|
|-14-17-14-17fb--17---17fb---br-17--14-17-14-17fb-17-|
|----------------------------------------------------|
|----------------------------------------------------|
|----------------------------------------------------|
|----------------------------------------------------|

|--------------------------|
|---14---------------------|
|16----16fbr--14-16----14v-|
|-------------------16-----|
|--------------------------|
|--------------------------|

Bridge:
|------------------------------------------------------------|
|------------------------------------------------------------|
|------------------------------------------------------------|
|------2--------------2--------------2--------------2--------|
|--0-4------------0-4------------0-4------------0-4----------|
|--------4-0-2---0------4-0-2---0------4-0-2---0------4-0-2--|

Break:
|-----------------------------|
|-----------------------------|
|-----------------------------|x4
|------6----7----8----9-------|
|-7-7-7--7-7--7-7--7-7--7-7-7-|
|-----------------------------|

|-----------------------------|
|-----------------------------|
|-----------------------------|x2
|------4----5----6----7-------|
|-0-0-0--0-0--0-0--0-0--0-0-0-|
|-----------------------------|

|---------------------------------------------------------------------------|
|----------------------------------------------------------------------9----|
|-------------------------------------------------------6----7----8----9----|
|------6----7----8----9-------------6----7----8----9------------------------|
|-7-7-7--7-7--7-7--7-7--7-7-7--7-7-7--7-7--7-7--7-7--7-7--7-7--7-7--7-7-----|
|---------------------------------------------------------------------------|

Verse 3:
|-----------------------|
|-----------------------|
|-----------------------|
|-2---4-4--------4------|x4
|-0-2-4-4--2-2-2-4-2----|
|---0-2-2--0-0-0-2-0----|

|-----------------------|  
|-----------------------|  
|-----------------------|  
|-2---4-4--------4------|x7 
|-0-2-4-4--2-2-2-4-2----|  
|---0-2-2--0-0-0-2-0----|  

|----------|
|----------|
|----------|
|-2---4-4--|
|-0-2-4-4--|
|---0-2-2--|

Chorus:
|---------------------------------------------------------------------|
|-17fb--17----17fb--17--14-17-14-17fb--17------14---------------------|
|-------------------------------------------16----16fbr--14-16----14v-|
|--------------------------------------------------------------16-----|
|---------------------------------------------------------------------|
|---------------------------------------------------------------------|

|-------------------------17-------------------------|
|-14-17-14-17fb--17---17fb---br-17--14-17-14-17fb-17-|
|----------------------------------------------------|
|----------------------------------------------------|
|----------------------------------------------------|
|----------------------------------------------------|

|--------------------------|
|---14---------------------|
|16----16fbr--14-16----14v-|
|-------------------16-----|
|--------------------------|
|--------------------------|
Tap to rate this tab
 
# A B C D E F G H I J K L M N O P Q R S T U V W X Y Z