Thin Lizzy - The Boys Are Back In Town tab




Thin Lizzy - The Boys Are Back In Town




Guitar Riffs:

         A                B5   D5
      E----------------------------I
      B----------------------------I
      G----------------------------I  Riff 1
      D--------2h4-2-2-4-----------I
      A-------------4--------------I
      E----------------------------I


      E------------------------------------------------I
      B------2-2-------2-2-------5-----2-3-3-3-3-2-2---I
      G-2-2h4---2-2-2h4---2-2-2h4-2-2h4-----------4-2--I  Riff 2
      D------------------------------------------------I
      A------------------------------------------------I
      E------------------------------------------------I


                             D5  E5
      E-----------------------------I
      B--2-2-3-5---2-3-5------------I
      G---2-----2--------2----------I  Riff 3
      D-----------------------------I
      A-----------------------------I
      E-----------------------------I

      
      Riffs 1, 2, and 3 are for Guitar 1 - 2nd Guitar Harmonizes



Song Structure:


Intro:
         Riff 1  x4


Verse 1:

         A C#5 D5 F#5 C#5 F#5 B5 E7 A C#5 D5 F5 E5 F#5 B5 E7  X2
         

Chorus: 
        Riff 1  X3
        
        Riff 2  X2


Verse 2:

        A C#5 D5 F#5 C#5 F#5 B5 E7 A C#5 D5 F5 E5 F#5 B5 E7  X2


Chorus: 
        Riff 1  X3
        
        Riff 2  X2


Bridge:

       Dsus4 D C#5 F#5 B5 E7 F#5(Hold)  X2


Verse 3:

        A C#5 D5 F#5 C#5 F#5 B5 E7 A C#5 D5 F5 E5 F#5 B5 E7  X2


Chorus: 
        Riff 1  X4 (3rd and 4th times get softer)

        Riff 3  X2

        Riff 1  repeats till end
Tap to rate this tab
 
# A B C D E F G H I J K L M N O P Q R S T U V W X Y Z